  0
SECTION
  2
HEADER
  9
$ACADVER
  1
AC1021
  9
$ACADMAINTVER
 70
    25
  9
$DWGCODEPAGE
  3
ANSI_1252
  9
$LASTSAVEDBY
  1
Daniel  Gomez
  9
$INSBASE
 10
0.0
 20
0.0
 30
0.0
  9
$EXTMIN
 10
-2590.546706986222
 20
-831.4924995327432
 30
0.0
  9
$EXTMAX
 10
684.3457542408935
 20
1027.05027297047
 30
0.0
  9
$LIMMIN
 10
0.0
 20
0.0
  9
$LIMMAX
 10
12.0
 20
9.0
  9
$ORTHOMODE
 70
     0
  9
$REGENMODE
 70
     1
  9
$FILLMODE
 70
     1
  9
$QTEXTMODE
 70
     0
  9
$MIRRTEXT
 70
     1
  9
$LTSCALE
 40
1.0
  9
$ATTMODE
 70
     1
  9
$TEXTSIZE
 40
10.0
  9
$TRACEWID
 40
0.05
  9
$TEXTSTYLE
  7
STANDARD
  9
$CLAYER
  8
0
  9
$CELTYPE
  6
BYLAYER
  9
$CECOLOR
 62
   256
  9
$CELTSCALE
 40
1.0
  9
$DISPSILH
 70
     0
  9
$DIMSCALE
 40
1.0
  9
$DIMASZ
 40
0.18
  9
$DIMEXO
 40
0.0625
  9
$DIMDLI
 40
0.38
  9
$DIMRND
 40
0.0
  9
$DIMDLE
 40
0.0
  9
$DIMEXE
 40
0.18
  9
$DIMTP
 40
0.0
  9
$DIMTM
 40
0.0
  9
$DIMTXT
 40
0.18
  9
$DIMCEN
 40
0.09
  9
$DIMTSZ
 40
0.0
  9
$DIMTOL
 70
     0
  9
$DIMLIM
 70
     0
  9
$DIMTIH
 70
     1
  9
$DIMTOH
 70
     1
  9
$DIMSE1
 70
     0
  9
$DIMSE2
 70
     0
  9
$DIMTAD
 70
     0
  9
$DIMZIN
 70
     0
  9
$DIMBLK
  1

  9
$DIMASO
 70
     1
  9
$DIMSHO
 70
     1
  9
$DIMPOST
  1

  9
$DIMAPOST
  1

  9
$DIMALT
 70
     0
  9
$DIMALTD
 70
     2
  9
$DIMALTF
 40
25.4
  9
$DIMLFAC
 40
1.0
  9
$DIMTOFL
 70
     0
  9
$DIMTVP
 40
0.0
  9
$DIMTIX
 70
     0
  9
$DIMSOXD
 70
     0
  9
$DIMSAH
 70
     0
  9
$DIMBLK1
  1

  9
$DIMBLK2
  1

  9
$DIMSTYLE
  2
STANDARD
  9
$DIMCLRD
 70
     0
  9
$DIMCLRE
 70
     0
  9
$DIMCLRT
 70
     0
  9
$DIMTFAC
 40
1.0
  9
$DIMGAP
 40
0.09
  9
$DIMJUST
 70
     0
  9
$DIMSD1
 70
     0
  9
$DIMSD2
 70
     0
  9
$DIMTOLJ
 70
     1
  9
$DIMTZIN
 70
     0
  9
$DIMALTZ
 70
     0
  9
$DIMALTTZ
 70
     0
  9
$DIMUPT
 70
     0
  9
$DIMDEC
 70
     4
  9
$DIMTDEC
 70
     4
  9
$DIMALTU
 70
     2
  9
$DIMALTTD
 70
     2
  9
$DIMTXSTY
  7
STANDARD
  9
$DIMAUNIT
 70
     0
  9
$DIMADEC
 70
     0
  9
$DIMALTRND
 40
0.0
  9
$DIMAZIN
 70
     0
  9
$DIMDSEP
 70
    46
  9
$DIMATFIT
 70
     3
  9
$DIMFRAC
 70
     0
  9
$DIMLDRBLK
  1

  9
$DIMLUNIT
 70
     2
  9
$DIMLWD
 70
    -2
  9
$DIMLWE
 70
    -2
  9
$DIMTMOVE
 70
     0
  9
$DIMFXL
 40
1.0
  9
$DIMFXLON
 70
     0
  9
$DIMJOGANG
 40
0.7853981633974483
  9
$DIMTFILL
 70
     0
  9
$DIMTFILLCLR
 70
     0
  9
$DIMARCSYM
 70
     0
  9
$DIMLTYPE
  6

  9
$DIMLTEX1
  6

  9
$DIMLTEX2
  6

  9
$LUNITS
 70
     2
  9
$LUPREC
 70
     4
  9
$SKETCHINC
 40
0.1
  9
$FILLETRAD
 40
0.5
  9
$AUNITS
 70
     0
  9
$AUPREC
 70
     0
  9
$MENU
  1
.
  9
$ELEVATION
 40
0.0
  9
$PELEVATION
 40
0.0
  9
$THICKNESS
 40
0.0
  9
$LIMCHECK
 70
     0
  9
$CHAMFERA
 40
0.5
  9
$CHAMFERB
 40
0.5
  9
$CHAMFERC
 40
1.0
  9
$CHAMFERD
 40
0.0
  9
$SKPOLY
 70
     0
  9
$TDCREATE
 40
2455357.793136563
  9
$TDUCREATE
 40
2455357.918136563
  9
$TDUPDATE
 40
2457889.864562373
  9
$TDUUPDATE
 40
2457889.989562373
  9
$TDINDWG
 40
0.2795622685
  9
$TDUSRTIMER
 40
2457889.988749433
  9
$USRTIMER
 70
     1
  9
$ANGBASE
 50
0.0
  9
$ANGDIR
 70
     0
  9
$PDMODE
 70
     0
  9
$PDSIZE
 40
0.0
  9
$PLINEWID
 40
0.0
  9
$SPLFRAME
 70
     0
  9
$SPLINETYPE
 70
     6
  9
$SPLINESEGS
 70
     8
  9
$HANDSEED
  5
1064
  9
$SURFTAB1
 70
     6
  9
$SURFTAB2
 70
     6
  9
$SURFTYPE
 70
     6
  9
$SURFU
 70
     6
  9
$SURFV
 70
     6
  9
$UCSBASE
  2

  9
$UCSNAME
  2

  9
$UCSORG
 10
0.0
 20
0.0
 30
0.0
  9
$UCSXDIR
 10
1.0
 20
0.0
 30
0.0
  9
$UCSYDIR
 10
0.0
 20
1.0
 30
0.0
  9
$UCSORTHOREF
  2

  9
$UCSORTHOVIEW
 70
     0
  9
$UCSORGTOP
 10
0.0
 20
0.0
 30
0.0
  9
$UCSORGBOTTOM
 10
0.0
 20
0.0
 30
0.0
  9
$UCSORGLEFT
 10
0.0
 20
0.0
 30
0.0
  9
$UCSORGRIGHT
 10
0.0
 20
0.0
 30
0.0
  9
$UCSORGFRONT
 10
0.0
 20
0.0
 30
0.0
  9
$UCSORGBACK
 10
0.0
 20
0.0
 30
0.0
  9
$PUCSBASE
  2

  9
$PUCSNAME
  2

  9
$PUCSORG
 10
0.0
 20
0.0
 30
0.0
  9
$PUCSXDIR
 10
1.0
 20
0.0
 30
0.0
  9
$PUCSYDIR
 10
0.0
 20
1.0
 30
0.0
  9
$PUCSORTHOREF
  2

  9
$PUCSORTHOVIEW
 70
     0
  9
$PUCSORGTOP
 10
0.0
 20
0.0
 30
0.0
  9
$PUCSORGBOTTOM
 10
0.0
 20
0.0
 30
0.0
  9
$PUCSORGLEFT
 10
0.0
 20
0.0
 30
0.0
  9
$PUCSORGRIGHT
 10
0.0
 20
0.0
 30
0.0
  9
$PUCSORGFRONT
 10
0.0
 20
0.0
 30
0.0
  9
$PUCSORGBACK
 10
0.0
 20
0.0
 30
0.0
  9
$USERI1
 70
     0
  9
$USERI2
 70
     0
  9
$USERI3
 70
     0
  9
$USERI4
 70
     0
  9
$USERI5
 70
     0
  9
$USERR1
 40
0.0
  9
$USERR2
 40
0.0
  9
$USERR3
 40
0.0
  9
$USERR4
 40
0.0
  9
$USERR5
 40
0.0
  9
$WORLDVIEW
 70
     1
  9
$SHADEDGE
 70
     3
  9
$SHADEDIF
 70
    70
  9
$TILEMODE
 70
     1
  9
$MAXACTVP
 70
    48
  9
$PINSBASE
 10
0.0
 20
0.0
 30
0.0
  9
$PLIMCHECK
 70
     0
  9
$PEXTMIN
 10
1.000000000000000E+20
 20
1.000000000000000E+20
 30
1.000000000000000E+20
  9
$PEXTMAX
 10
-1.000000000000000E+20
 20
-1.000000000000000E+20
 30
-1.000000000000000E+20
  9
$PLIMMIN
 10
0.0
 20
0.0
  9
$PLIMMAX
 10
0.0
 20
0.0
  9
$UNITMODE
 70
     0
  9
$VISRETAIN
 70
     1
  9
$PLINEGEN
 70
     0
  9
$PSLTSCALE
 70
     1
  9
$TREEDEPTH
 70
  3020
  9
$CMLSTYLE
  2
STANDARD
  9
$CMLJUST
 70
     0
  9
$CMLSCALE
 40
1.0
  9
$PROXYGRAPHICS
 70
     1
  9
$MEASUREMENT
 70
     0
  9
$CELWEIGHT
370
    -1
  9
$ENDCAPS
280
     0
  9
$JOINSTYLE
280
     0
  9
$LWDISPLAY
290
     0
  9
$INSUNITS
 70
     0
  9
$HYPERLINKBASE
  1

  9
$STYLESHEET
  1

  9
$XEDIT
290
     1
  9
$CEPSNTYPE
380
     0
  9
$PSTYLEMODE
290
     1
  9
$FINGERPRINTGUID
  2
{A69E0C6F-1817-4D1B-AA2B-65F59DFCC0F3}
  9
$VERSIONGUID
  2
{FAEB1C32-E019-11D5-929B-00C0DF256EC4}
  9
$EXTNAMES
290
     1
  9
$PSVPSCALE
 40
0.0
  9
$OLESTARTUP
290
     0
  9
$SORTENTS
280
   127
  9
$INDEXCTL
280
     0
  9
$HIDETEXT
280
     1
  9
$XCLIPFRAME
290
     0
  9
$HALOGAP
280
     0
  9
$OBSCOLOR
 70
   257
  9
$OBSLTYPE
280
     0
  9
$INTERSECTIONDISPLAY
280
     0
  9
$INTERSECTIONCOLOR
 70
   257
  9
$DIMASSOC
280
     2
  9
$PROJECTNAME
  1

  9
$CAMERADISPLAY
290
     0
  9
$LENSLENGTH
 40
50.0
  9
$CAMERAHEIGHT
 40
0.0
  9
$STEPSPERSEC
 40
2.0
  9
$STEPSIZE
 40
6.0
  9
$3DDWFPREC
 40
2.0
  9
$PSOLWIDTH
 40
0.25
  9
$PSOLHEIGHT
 40
4.0
  9
$LOFTANG1
 40
1.570796326794897
  9
$LOFTANG2
 40
1.570796326794897
  9
$LOFTMAG1
 40
0.0
  9
$LOFTMAG2
 40
0.0
  9
$LOFTPARAM
 70
     7
  9
$LOFTNORMALS
280
     1
  9
$LATITUDE
 40
37.795
  9
$LONGITUDE
 40
-122.394
  9
$NORTHDIRECTION
 40
0.0
  9
$TIMEZONE
 70
 -8000
  9
$LIGHTGLYPHDISPLAY
280
     1
  9
$TILEMODELIGHTSYNCH
280
     1
  9
$SOLIDHIST
280
     0
  9
$SHOWHIST
280
     1
  9
$DWFFRAME
280
     2
  9
$DGNFRAME
280
     2
  9
$REALWORLDSCALE
290
     1
  9
$INTERFERECOLOR
 62
   256
  9
$CSHADOW
280
     0
  9
$SHADOWPLANELOCATION
 40
0.0
  0
ENDSEC
  0
SECTION
  2
CLASSES
  0
CLASS
  1
LWPOLYLINE
  2
AcDbPolyline
  3
ObjectDBX Classes
 90
        0
 91
        1
280
     0
281
     1
  0
CLASS
  1
IMAGE
  2
AcDbRasterImage
  3
ISM
 90
      127
 91
        5
280
     0
281
     1
  0
CLASS
  1
OLE2FRAME
  2
AcDbOle2Frame
  3
ObjectDBX Classes
 90
        0
 91
        1
280
     0
281
     1
  0
CLASS
  1
HATCH
  2
AcDbHatch
  3
ObjectDBX Classes
 90
        0
 91
        1
280
     0
281
     1
  0
CLASS
  1
DICTIONARYVAR
  2
AcDbDictionaryVar
  3
ObjectDBX Classes
 90
        0
 91
        4
280
     0
281
     0
  0
CLASS
  1
RASTERVARIABLES
  2
AcDbRasterVariables
  3
ISM
 90
        0
 91
        4
280
     0
281
     0
  0
CLASS
  1
IMAGEDEF
  2
AcDbRasterImageDef
  3
ISM
 90
        0
 91
        4
280
     0
281
     0
  0
CLASS
  1
IMAGEDEF_REACTOR
  2
AcDbRasterImageDefReactor
  3
ISM
 90
        1
 91
        4
280
     0
281
     0
  0
CLASS
  1
IDBUFFER
  2
AcDbIdBuffer
  3
ObjectDBX Classes
 90
        0
 91
        4
280
     0
281
     0
  0
CLASS
  1
SPATIAL_FILTER
  2
AcDbSpatialFilter
  3
ObjectDBX Classes
 90
        0
 91
        4
280
     0
281
     0
  0
CLASS
  1
XRECORD
  2
AcDbXrecord
  3
ObjectDBX Classes
 90
        0
 91
        1
280
     0
281
     0
  0
CLASS
  1
SORTENTSTABLE
  2
AcDbSortentsTable
  3
ObjectDBX Classes
 90
        0
 91
        4
280
     0
281
     0
  0
CLASS
  1
LAYER_INDEX
  2
AcDbLayerIndex
  3
ObjectDBX Classes
 90
        0
 91
        4
280
     0
281
     0
  0
CLASS
  1
SPATIAL_INDEX
  2
AcDbSpatialIndex
  3
AutoCAD 2000
 90
        0
 91
        4
280
     0
281
     0
  0
CLASS
  1
OBJECT_PTR
  2
CAseDLPNTableRecord
  3
ASE-LPNTableRecord
 90
        1
 91
        4
280
     0
281
     0
  0
CLASS
  1
LAYOUT
  2
AcDbLayout
  3
ObjectDBX Classes
 90
        0
 91
        1
280
     0
281
     0
  0
CLASS
  1
PLOTSETTINGS
  2
AcDbPlotSettings
  3
ObjectDBX Classes
 90
        0
 91
        4
280
     0
281
     0
  0
CLASS
  1
ACDBDICTIONARYWDFLT
  2
AcDbDictionaryWithDefault
  3
ObjectDBX Classes
 90
        0
 91
        4
280
     0
281
     0
  0
CLASS
  1
ACDBPLACEHOLDER
  2
AcDbPlaceHolder
  3
ObjectDBX Classes
 90
        0
 91
        1
280
     0
281
     0
  0
CLASS
  1
VBA_PROJECT
  2
AcDbVbaProject
  3
ObjectDBX Classes
 90
        0
 91
        1
280
     0
281
     0
  0
CLASS
  1
WIPEOUT
  2
AcDbWipeout
  3
WipeOut|AutoCAD Express Tool|expresstools@autodesk.com
 90
      127
 91
        4
280
     0
281
     1
  0
CLASS
  1
WIPEOUTVARIABLES
  2
AcDbWipeoutVariables
  3
WipeOut|AutoCAD Express Tool|expresstools@autodesk.com
 90
        0
 91
        4
280
     0
281
     0
  0
CLASS
  1
RTEXT
  2
RText
  3
RText|AutoCAD Express Tool|expresstools@autodesk.com
 90
        0
 91
        4
280
     0
281
     1
  0
CLASS
  1
ARCALIGNEDTEXT
  2
AcDbArcAlignedText
  3
ATEXT|AutoCAD Express Tool|expresstools@autodesk.com
 90
        0
 91
        4
280
     0
281
     1
  0
CLASS
  1
VISUALSTYLE
  2
AcDbVisualStyle
  3
ObjectDBX Classes
 90
     4095
 91
        4
280
     0
281
     0
  0
CLASS
  1
SCALE
  2
AcDbScale
  3
ObjectDBX Classes
 90
     1153
 91
        4
280
     0
281
     0
  0
CLASS
  1
MATERIAL
  2
AcDbMaterial
  3
ObjectDBX Classes
 90
     1153
 91
        4
280
     0
281
     0
  0
CLASS
  1
TABLESTYLE
  2
AcDbTableStyle
  3
ObjectDBX Classes
 90
     4095
 91
        4
280
     0
281
     0
  0
CLASS
  1
MLEADERSTYLE
  2
AcDbMLeaderStyle
  3
ACDB_MLEADERSTYLE_CLASS
 90
     4095
 91
        4
280
     0
281
     0
  0
CLASS
  1
SUN
  2
AcDbSun
  3
SCENEOE
 90
     1153
 91
        4
280
     0
281
     0
  0
CLASS
  1
CELLSTYLEMAP
  2
AcDbCellStyleMap
  3
ObjectDBX Classes
 90
     1152
 91
        4
280
     0
281
     0
  0
ENDSEC
  0
SECTION
  2
TABLES
  0
TABLE
  2
VPORT
  5
8
330
0
100
AcDbSymbolTable
 70
     2
  0
VPORT
  5
25
330
8
100
AcDbSymbolTableRecord
100
AcDbViewportTableRecord
  2
*ACTIVE
 70
     0
 10
0.0
 20
0.0
 11
1.0
 21
1.0
 12
-630.8204552292989
 22
-251.4069950073876
 13
0.0
 23
0.0
 14
0.5
 24
0.5
 15
0.5
 25
0.5
 16
0.0
 26
0.0
 36
1.0
 17
0.0
 27
0.0
 37
0.0
 40
1582.369402033717
 41
2.923766816143497
 42
50.0
 43
0.0
 44
0.0
 50
0.0
 51
0.0
 71
    16
 72
   100
 73
     1
 74
     1
 75
     0
 76
     0
 77
     0
 78
     0
281
     0
 65
     1
110
0.0
120
0.0
130
0.0
111
1.0
121
0.0
131
0.0
112
0.0
122
1.0
132
0.0
 79
     0
146
0.0
348
1012
 60
     3
 61
     5
292
     1
282
     1
141
0.0
142
0.0
 63
   250
361
1057
  0
ENDTAB
  0
TABLE
  2
LTYPE
  5
5
330
0
100
AcDbSymbolTable
 70
     1
  0
LTYPE
  5
12
330
5
100
AcDbSymbolTableRecord
100
AcDbLinetypeTableRecord
  2
BYBLOCK
 70
     0
  3

 72
    65
 73
     0
 40
0.0
  0
LTYPE
  5
13
330
5
100
AcDbSymbolTableRecord
100
AcDbLinetypeTableRecord
  2
BYLAYER
 70
     0
  3

 72
    65
 73
     0
 40
0.0
  0
LTYPE
  5
14
330
5
100
AcDbSymbolTableRecord
100
AcDbLinetypeTableRecord
  2
CONTINUOUS
 70
     0
  3
Solid line
 72
    65
 73
     0
 40
0.0
  0
ENDTAB
  0
TABLE
  2
LAYER
  5
2
330
0
100
AcDbSymbolTable
 70
     4
  0
LAYER
  5
E
330
2
100
AcDbSymbolTableRecord
100
AcDbLayerTableRecord
  2
0
 70
     0
 62
     7
  6
CONTINUOUS
370
    -3
390
1028
347
1051
  0
LAYER
  5
2D
330
2
100
AcDbSymbolTableRecord
100
AcDbLayerTableRecord
  2
MADERA
 70
     0
 62
     7
  6
CONTINUOUS
370
    -3
390
1028
347
1051
  0
LAYER
  5
32
330
2
100
AcDbSymbolTableRecord
100
AcDbLayerTableRecord
  2
ALAS
 70
     0
 62
     7
  6
CONTINUOUS
370
    -3
390
1028
347
1051
  0
LAYER
  5
65
330
2
100
AcDbSymbolTableRecord
100
AcDbLayerTableRecord
  2
5MM
 70
     0
 62
     7
  6
CONTINUOUS
370
    -3
390
1028
347
1051
  0
ENDTAB
  0
TABLE
  2
STYLE
  5
3
330
0
100
AcDbSymbolTable
 70
     1
  0
STYLE
  5
F
330
3
100
AcDbSymbolTableRecord
100
AcDbTextStyleTableRecord
  2
STANDARD
 70
     0
 40
0.0
 41
1.0
 50
0.0
 71
     0
 42
0.2
  3
txt.shx
  4

  0
ENDTAB
  0
TABLE
  2
VIEW
  5
6
330
0
100
AcDbSymbolTable
 70
     0
  0
ENDTAB
  0
TABLE
  2
UCS
  5
7
330
0
100
AcDbSymbolTable
 70
     0
  0
ENDTAB
  0
TABLE
  2
APPID
  5
9
330
0
100
AcDbSymbolTable
 70
     2
  0
APPID
  5
10
330
9
100
AcDbSymbolTableRecord
100
AcDbRegAppTableRecord
  2
ACAD
 70
     0
  0
APPID
  5
105D
330
9
100
AcDbSymbolTableRecord
100
AcDbRegAppTableRecord
  2
ACAD_MLEADERVER
 70
     0
  0
ENDTAB
  0
TABLE
  2
DIMSTYLE
  5
A
330
0
100
AcDbSymbolTable
 70
     1
100
AcDbDimStyleTable
  0
DIMSTYLE
105
1D
330
A
100
AcDbSymbolTableRecord
100
AcDbDimStyleTableRecord
  2
STANDARD
 70
     0
178
     0
340
F
  0
ENDTAB
  0
TABLE
  2
BLOCK_RECORD
  5
1
330
0
100
AcDbSymbolTable
 70
     0
  0
BLOCK_RECORD
  5
18
330
1
100
AcDbSymbolTableRecord
100
AcDbBlockTableRecord
  2
*MODEL_SPACE
340
104C
 70
     0
280
     1
281
     0
  0
BLOCK_RECORD
  5
15
330
1
100
AcDbSymbolTableRecord
100
AcDbBlockTableRecord
  2
*PAPER_SPACE
340
104D
 70
     0
280
     1
281
     0
  0
ENDTAB
  0
ENDSEC
  0
SECTION
  2
BLOCKS
  0
BLOCK
  5
19
330
18
100
AcDbEntity
  8
0
100
AcDbBlockBegin
  2
*MODEL_SPACE
 70
     0
 10
0.0
 20
0.0
 30
0.0
  3
*MODEL_SPACE
  1

  0
ENDBLK
  5
1A
330
18
100
AcDbEntity
  8
0
100
AcDbBlockEnd
  0
BLOCK
  5
16
330
15
100
AcDbEntity
 67
     1
  8
0
100
AcDbBlockBegin
  2
*PAPER_SPACE
 70
     0
 10
0.0
 20
0.0
 30
0.0
  3
*PAPER_SPACE
  1

  0
ENDBLK
  5
17
330
15
100
AcDbEntity
 67
     1
  8
0
100
AcDbBlockEnd
  0
ENDSEC
  0
SECTION
  2
ENTITIES
  0
LWPOLYLINE
  5
60
330
18
100
AcDbEntity
  8
ALAS
  6
Continuous
 62
     7
100
AcDbPolyline
 90
        2
 70
     0
 43
0.0
 10
-861.1731242137191
 20
-3.697358640297692
 10
-861.1731242137191
 20
31.19184898470269
  0
LWPOLYLINE
  5
61
330
18
100
AcDbEntity
  8
ALAS
  6
Continuous
 62
     7
100
AcDbPolyline
 90
       26
 70
     0
 43
0.0
 10
-861.4137394387187
 20
-3.937973865298202
 10
-890.044594146975
 20
-3.579504340631841
 10
-914.1154955878299
 20
-2.606632019845504
 10
-921.0783761393693
 20
-2.142520140028294
 10
-936.017415356124
 20
-0.6730102951554482
 10
-937.6758095963135
 20
-0.4657111354393901
 10
-947.5354811437658
 20
1.207490084466032
 10
-954.3152778112187
 20
2.967683092202266
 10
-959.320074491219
 20
4.796358802202692
 10
-962.9293028662184
 20
6.697219079701997
 10
-963.952842978624
 20
7.31541517484459
 10
-967.4697044622806
 20
10.0776707393876
 10
-971.1342820387188
 20
13.38632233470219
 10
-971.1342820387188
 20
14.1081680097019
 10
-970.1718211387185
 20
14.58939845970201
 10
-968.9687450137187
 20
16.03308980970235
 10
-964.1194228238135
 20
20.06802209984437
 10
-963.3975771488133
 20
20.54925254984448
 10
-958.4057366362183
 20
23.05905437970216
 10
-954.7483852162188
 20
24.38243811720224
 10
-946.610037933671
 20
26.47208870946599
 10
-936.0188961022188
 20
28.1649094542023
 10
-920.8377609143697
 20
29.63701048443329
 10
-913.8748803628293
 20
30.1011223642505
 10
-889.0822220339921
 20
31.07389867956192
 10
-861.4137394387187
 20
31.43246420970229
  0
LWPOLYLINE
  5
A6
330
18
100
AcDbEntity
  8
ALAS
  6
Continuous
 62
     7
100
AcDbPolyline
 90
       26
 70
     0
 43
0.0
 10
-1089.443534293204
 20
30.77710353729492
 10
-1060.812679584948
 20
30.41863401262856
 10
-1036.741778144093
 20
29.44576169184222
 10
-1029.778897592554
 20
28.98164981202501
 10
-1014.839858375799
 20
27.51213996715217
 10
-1013.18146413561
 20
27.30484080743611
 10
-1003.321792588157
 20
25.63163958753069
 10
-996.5419959207045
 20
23.87144657979445
 10
-991.5371992407042
 20
22.04277086979403
 10
-987.9279708657048
 20
20.14191059229472
 10
-986.9044307532993
 20
19.52371449715213
 10
-983.3875692696427
 20
16.76145893260912
 10
-979.7229916932044
 20
13.45280733729453
 10
-979.7229916932044
 20
12.73096166229482
 10
-980.6854525932047
 20
12.24973121229471
 10
-981.8885287182045
 20
10.80603986229437
 10
-986.7378509081097
 20
6.771107572152347
 10
-987.4596965831099
 20
6.289877122152236
 10
-992.4515370957049
 20
3.780075292294557
 10
-996.1088885157044
 20
2.456691554794476
 10
-1004.247235798252
 20
0.3670409625307247
 10
-1014.838377629704
 20
-1.325779782205585
 10
-1030.019512817554
 20
-2.797880812436572
 10
-1036.982393369094
 20
-3.261992692253783
 10
-1061.775051697931
 20
-4.234769007565204
 10
-1089.443534293204
 20
-4.593334537705571
  0
LWPOLYLINE
  5
A7
330
18
100
AcDbEntity
  8
ALAS
  6
Continuous
 62
     7
100
AcDbPolyline
 90
        2
 70
     0
 43
0.0
 10
-1089.684149518204
 20
30.53648831229441
 10
-1089.684149518204
 20
-4.35271931270597
  0
LINE
  5
FC
330
18
100
AcDbEntity
  8
MADERA
 62
     7
100
AcDbLine
 10
-392.1774419593016
 20
-831.4924995327432
 30
0.0
 11
-392.1774419593016
 21
-271.4924995327427
 31
0.0
  0
LINE
  5
FD
330
18
100
AcDbEntity
  8
MADERA
 62
     7
100
AcDbLine
 10
-1282.177441959302
 20
-831.4924995327432
 30
0.0
 11
-392.1774419593016
 21
-831.4924995327432
 31
0.0
  0
LINE
  5
FE
330
18
100
AcDbEntity
  8
MADERA
 62
     7
100
AcDbLine
 10
-1282.177441959302
 20
-271.4924995327427
 30
0.0
 11
-1282.177441959302
 21
-831.4924995327432
 31
0.0
  0
LINE
  5
FF
330
18
100
AcDbEntity
  8
MADERA
 62
     7
100
AcDbLine
 10
-392.1774419593016
 20
-271.4924995327427
 30
0.0
 11
-1282.177441959302
 21
-271.4924995327427
 31
0.0
  0
LINE
  5
18D
330
18
100
AcDbEntity
  8
5MM
 62
     7
100
AcDbLine
 10
-2022.907719558884
 20
819.1917533456835
 30
0.0
 11
-2022.789099591055
 21
513.1917763370187
 31
0.0
  0
LINE
  5
18E
330
18
100
AcDbEntity
  8
5MM
 62
     7
100
AcDbLine
 10
-2080.289095270788
 20
513.1694866371821
 30
0.0
 11
-2080.407715238616
 21
819.169463645846
 31
0.0
  0
LINE
  5
190
330
18
100
AcDbEntity
  8
5MM
 62
     7
100
AcDbLine
 10
-2022.789099591055
 20
513.1917763370187
 30
0.0
 11
-2080.289095270788
 21
513.1694866371821
 31
0.0
  0
LWPOLYLINE
  5
196
330
18
100
AcDbEntity
  8
ALAS
  6
Continuous
 62
     7
100
AcDbPolyline
 90
       30
 70
     0
 43
0.0
 10
-530.5725905132745
 20
-204.6953570891141
 10
-569.7900774424356
 20
-204.0967499606699
 10
-587.5926984229786
 20
-203.3782738612803
 10
-595.5312486879097
 20
-202.899260199349
 10
-611.432262280679
 20
-201.4303935189722
 10
-613.0906565208693
 20
-201.2230943592562
 10
-623.4315585183208
 20
-199.5498931393508
 10
-631.6550465357736
 20
-197.549084906614
 10
-636.9004584407735
 20
-195.7204091966136
 10
-640.5707660281792
 20
-193.9231984989723
 10
-641.5202707607737
 20
-193.4345645591142
 10
-644.6242071632746
 20
-191.2209044891137
 10
-648.2334355382732
 20
-187.3710608891137
 10
-648.2334355382732
 20
-186.649215214114
 10
-647.6930373232158
 20
-185.9766759297903
 10
-646.6082967283323
 20
-184.6749870234375
 10
-644.1429767132736
 20
-182.0775259391143
 10
-641.6998067733689
 20
-180.4487458989719
 10
-640.798425085773
 20
-179.8638658691138
 10
-635.9861205857737
 20
-177.6742673216144
 10
-631.8956617607741
 20
-176.2305759716141
 10
-623.6721737433213
 20
-174.2297677388773
 10
-622.7467305332261
 20
-174.0446792893503
 10
-611.646965170868
 20
-172.3159512939723
 10
-609.9885709306795
 20
-172.1086521342562
 10
-596.7502696620245
 20
-170.8988255491189
 10
-589.0487277998704
 20
-170.4151547795067
 10
-571.7147133915482
 20
-169.6825947491529
 10
-562.8181112599991
 20
-169.4484737290753
 10
-530.5725905132745
 20
-169.084303789114
  0
LWPOLYLINE
  5
197
330
18
100
AcDbEntity
  8
ALAS
  6
Continuous
 62
     7
100
AcDbPolyline
 90
        2
 70
     0
 43
0.0
 10
-530.331975288274
 20
-204.4547418641136
 10
-530.331975288274
 20
-169.3249190141145
  0
LWPOLYLINE
  5
19A
330
18
100
AcDbEntity
  8
ALAS
  6
Continuous
 62
     7
100
AcDbPolyline
 90
       29
 70
     0
 43
0.0
 10
-1188.850784361201
 20
-449.7401792113338
 10
-1209.538250032352
 20
-450.57634430773
 10
-1227.099478360102
 20
-451.7746223245277
 10
-1235.03904618682
 20
-452.4954208420687
 10
-1249.742694175725
 20
-454.2143218710431
 10
-1253.557771041249
 20
-454.8856431610976
 10
-1259.856337258702
 20
-456.4052209438343
 10
-1261.733136013702
 20
-457.0308205288344
 10
-1267.315409233702
 20
-459.5572803913338
 10
-1271.184502051702
 20
-462.1944232573343
 10
-1274.750419686202
 20
-465.3801688363338
 10
-1274.750419686202
 20
-466.3426297363341
 10
-1272.140669901107
 20
-468.8043085211922
 10
-1270.863558396297
 20
-469.6557163514759
 10
-1266.786055738702
 20
-471.5880416413344
 10
-1264.861133938701
 20
-472.2858257938343
 10
-1258.853556946679
 20
-473.7041550960431
 10
-1253.828632321878
 20
-474.3885680198742
 10
-1240.823672961202
 20
-475.0047778363343
 10
-1226.633075101497
 20
-474.4095402835006
 10
-1212.924044071877
 20
-473.2148354027937
 10
-1209.317515399702
 20
-472.7381824168339
 10
-1196.328365181155
 20
-470.5811595615706
 10
-1187.145247101824
 20
-468.5930897394607
 10
-1170.34464272058
 20
-464.3327849582071
 10
-1169.842181586202
 20
-464.1770927113345
 10
-1163.826800961202
 20
-449.9807944363343
 10
-1164.067416186202
 20
-449.7401792113338
 10
-1188.850784361201
 20
-449.7401792113338
  0
LWPOLYLINE
  5
19F
330
18
100
AcDbEntity
  8
ALAS
  6
Continuous
 62
     7
100
AcDbPolyline
 90
       29
 70
     0
 43
0.0
 10
-1062.509029545674
 20
-406.9093610515109
 10
-1083.196495216824
 20
-407.7455261479062
 10
-1100.757723544575
 20
-408.9438041647044
 10
-1108.697291371293
 20
-409.6646026822453
 10
-1123.400939360198
 20
-411.3835037112202
 10
-1127.216016225722
 20
-412.0548250012743
 10
-1133.514582443175
 20
-413.5744027840109
 10
-1135.391381198174
 20
-414.200002369011
 10
-1140.973654418174
 20
-416.7264622315105
 10
-1144.842747236175
 20
-419.3636050975109
 10
-1148.408664870675
 20
-422.5493506765105
 10
-1148.408664870675
 20
-423.5118115765107
 10
-1145.79891508558
 20
-425.9734903613688
 10
-1144.521803580769
 20
-426.824898191653
 10
-1140.444300923175
 20
-428.757223481511
 10
-1138.519379123174
 20
-429.4550076340109
 10
-1132.511802131151
 20
-430.8733369362197
 10
-1127.48687750635
 20
-431.5577498600513
 10
-1114.481918145674
 20
-432.1739596765109
 10
-1100.29132028597
 20
-431.5787221236777
 10
-1086.58228925635
 20
-430.3840172429708
 10
-1082.975760584174
 20
-429.907364257011
 10
-1069.986610365627
 20
-427.7503414017473
 10
-1060.803492286297
 20
-425.7622715796377
 10
-1044.002887905052
 20
-421.5019667983842
 10
-1043.500426770674
 20
-421.3462745515111
 10
-1037.485046145675
 20
-407.1499762765105
 10
-1037.725661370674
 20
-406.9093610515109
 10
-1062.509029545674
 20
-406.9093610515109
  0
LWPOLYLINE
  5
1CC
330
18
100
AcDbEntity
  8
ALAS
  6
Continuous
 62
     7
100
AcDbPolyline
 90
       29
 70
     0
 43
0.0
 10
-657.0609284268398
 20
-157.1041653415068
 10
-677.7483940979896
 20
-157.940330437903
 10
-695.3096224257401
 20
-159.1386084547012
 10
-703.2491902524584
 20
-159.8594069722421
 10
-717.9528382413623
 20
-161.5783080012161
 10
-721.7679151068874
 20
-162.2496292912706
 10
-728.0664813243397
 20
-163.7692070740077
 10
-729.9432800793397
 20
-164.3948066590074
 10
-735.5255532993401
 20
-166.9212665215073
 10
-739.3946461173405
 20
-169.5584093875073
 10
-742.9605637518393
 20
-172.7441549665073
 10
-742.9605637518393
 20
-173.7066158665075
 10
-740.350813966746
 20
-176.1682946513656
 10
-739.0737024619352
 20
-177.0197024816489
 10
-734.9961998043395
 20
-178.9520277715073
 10
-733.07127800434
 20
-179.6498119240073
 10
-727.0637010123169
 20
-181.0681412262165
 10
-722.0387763875165
 20
-181.7525541500477
 10
-709.0338170268401
 20
-182.3687639665077
 10
-694.8432191671359
 20
-181.7735264136736
 10
-681.1341881375151
 20
-180.5788215329667
 10
-677.5276594653401
 20
-180.1021685470068
 10
-664.5385092467927
 20
-177.9451456917441
 10
-655.3553911674621
 20
-175.9570758696336
 10
-638.5547867862174
 20
-171.6967710883805
 10
-638.0523256518404
 20
-171.5410788415074
 10
-632.0369450268404
 20
-157.3447805665073
 10
-632.2775602518409
 20
-157.1041653415068
 10
-657.0609284268398
 20
-157.1041653415068
  0
LWPOLYLINE
  5
1CD
330
18
100
AcDbEntity
  8
ALAS
  6
Continuous
 62
     7
100
AcDbPolyline
 90
       29
 70
     0
 43
0.0
 10
-1077.727241968988
 20
-364.2395082289293
 10
-1098.414707640138
 20
-365.0756733253254
 10
-1115.975935967889
 20
-366.2739513421232
 10
-1123.915503794606
 20
-366.9947498596641
 10
-1138.619151783511
 20
-368.7136508886385
 10
-1142.434228649035
 20
-369.384972178693
 10
-1148.732794866488
 20
-370.9045499614297
 10
-1150.609593621488
 20
-371.5301495464298
 10
-1156.191866841489
 20
-374.0566094089293
 10
-1160.060959659488
 20
-376.6937522749297
 10
-1163.626877293988
 20
-379.8794978539293
 10
-1163.626877293988
 20
-380.8419587539295
 10
-1161.017127508894
 20
-383.3036375387876
 10
-1159.740016004083
 20
-384.1550453690713
 10
-1155.662513346488
 20
-386.0873706589298
 10
-1153.737591546488
 20
-386.7851548114297
 10
-1147.730014554465
 20
-388.2034841136385
 10
-1142.705089929664
 20
-388.8878970374697
 10
-1129.700130568988
 20
-389.5041068539297
 10
-1115.509532709284
 20
-388.908869301096
 10
-1101.800501679664
 20
-387.7141644203891
 10
-1098.193973007489
 20
-387.2375114344293
 10
-1085.204822788941
 20
-385.0804885791661
 10
-1076.021704709611
 20
-383.0924187570561
 10
-1059.221100328366
 20
-378.8321139758025
 10
-1058.718639193988
 20
-378.6764217289299
 10
-1052.703258568988
 20
-364.4801234539298
 10
-1052.943873793989
 20
-364.2395082289293
 10
-1077.727241968988
 20
-364.2395082289293
  0
LINE
  5
1CE
330
18
100
AcDbEntity
  8
5MM
 62
     7
100
AcDbLine
 10
-524.1086545975809
 20
-197.4232307914804
 30
0.0
 11
-524.1079156254614
 21
-208.4232307666575
 31
0.0
  0
ARC
  5
1CF
330
18
100
AcDbEntity
  8
5MM
 62
     7
100
AcDbCircle
 10
1212.715447754184
 20
-173.6504071460749
 30
0.0
 40
1736.986790293493
100
AcDbArc
 50
164.3530307708879
 51
180.7841884554734
  0
LINE
  5
1D0
330
18
100
AcDbEntity
  8
MADERA
 62
     7
100
AcDbLine
 10
-524.1079377025376
 20
-208.0946015413806
 30
0.0
 11
-459.9570079362434
 21
-208.0902919278719
 31
0.0
  0
LINE
  5
223
330
18
100
AcDbEntity
  8
5MM
 62
     7
100
AcDbLine
 10
-1077.574334256225
 20
-205.9353184417919
 30
0.0
 11
-1258.091146612809
 21
-205.9353184417919
 31
0.0
  0
LINE
  5
224
330
18
100
AcDbEntity
  8
5MM
 62
     7
100
AcDbLine
 10
-1258.091146612809
 20
-205.9353184417919
 30
0.0
 11
-1263.371087456598
 21
-145.5853184417919
 31
0.0
  0
LINE
  5
225
330
18
100
AcDbEntity
  8
5MM
 62
     7
100
AcDbLine
 10
-1214.357882736947
 20
-47.26311610212315
 30
0.0
 11
-1170.024318956431
 21
-150.4832231401301
 31
0.0
  0
LINE
  5
226
330
18
100
AcDbEntity
  8
5MM
 62
     7
100
AcDbLine
 10
-1077.574334256225
 20
-205.9353184417919
 30
0.0
 11
-1130.934587320243
 21
-184.2312091094486
 31
0.0
  0
ARC
  5
227
330
18
100
AcDbEntity
  8
5MM
 62
     7
100
AcDbCircle
 10
-1270.66450078612
 20
-87.44650008805775
 30
0.0
 40
69.17470335821145
100
AcDbArc
 50
35.51366404052325
 51
93.1787044406015
  0
ARC
  5
228
330
18
100
AcDbEntity
  8
5MM
 62
     7
100
AcDbCircle
 10
-1093.373886036386
 20
-101.2127862030443
 30
0.0
 40
91.1200571927043
100
AcDbArc
 50
212.7326655352391
 51
245.6561898994667
  0
LINE
  5
229
330
18
100
AcDbEntity
  8
5MM
 62
     7
100
AcDbLine
 10
-1264.652796377253
 20
-130.9353184417919
 30
0.0
 11
-1274.500265968301
 21
-18.37822596625983
 31
0.0
  0
LINE
  5
235
330
18
100
AcDbEntity
  8
5MM
 62
     7
100
AcDbLine
 10
-1263.747288709761
 20
-141.2853184417919
 30
0.0
 11
-1264.652796377253
 21
-130.9353184417919
 31
0.0
  0
LINE
  5
236
330
18
100
AcDbEntity
  8
MADERA
 62
     7
100
AcDbLine
 10
-395.8060806677954
 20
-208.1087052656644
 30
0.0
 11
-459.9570079362434
 21
-208.0902919278719
 31
0.0
  0
ARC
  5
237
330
18
100
AcDbEntity
  8
5MM
 62
     7
100
AcDbCircle
 10
-2132.621851517201
 20
-173.2826672240285
 30
0.0
 40
1736.986790293493
100
AcDbArc
 50
359.2032149400458
 51
15.63437262463135
  0
LINE
  5
238
330
18
100
AcDbEntity
  8
5MM
 62
     7
100
AcDbLine
 10
-395.8030176482093
 20
-197.437334931275
 30
0.0
 11
-395.806174994736
 21
-208.4373344781457
 31
0.0
  0
LINE
  5
244
330
18
100
AcDbEntity
  8
MADERA
 62
     7
100
AcDbLine
 10
-1280.601445630912
 20
347.2907059425493
 30
0.0
 11
-1280.601445630912
 21
-212.7092940574512
 31
0.0
  0
LINE
  5
245
330
18
100
AcDbEntity
  8
MADERA
 62
     7
100
AcDbLine
 10
-390.6014456309113
 20
347.2907059425493
 30
0.0
 11
-1280.601445630912
 21
347.2907059425493
 31
0.0
  0
LINE
  5
246
330
18
100
AcDbEntity
  8
MADERA
 62
     7
100
AcDbLine
 10
-390.6014456309113
 20
-212.7092940574512
 30
0.0
 11
-390.6014456309113
 21
347.2907059425493
 31
0.0
  0
LINE
  5
247
330
18
100
AcDbEntity
  8
MADERA
 62
     7
100
AcDbLine
 10
-1280.601445630912
 20
-212.7092940574512
 30
0.0
 11
-390.6014456309113
 21
-212.7092940574512
 31
0.0
  0
LINE
  5
248
330
18
100
AcDbEntity
  8
5MM
 62
     7
100
AcDbLine
 10
-1192.056827364559
 20
582.634064872228
 30
0.0
 11
-1085.130360571243
 21
582.634064872228
 31
0.0
  0
LINE
  5
249
330
18
100
AcDbEntity
  8
5MM
 62
     7
100
AcDbLine
 10
-1195.056827364559
 20
585.634064872228
 30
0.0
 11
-1192.056827364559
 21
585.634064872228
 31
0.0
  0
LINE
  5
24A
330
18
100
AcDbEntity
  8
5MM
 62
     7
100
AcDbLine
 10
-1195.056827364559
 20
582.634064872228
 30
0.0
 11
-1195.056827364559
 21
585.634064872228
 31
0.0
  0
LINE
  5
24B
330
18
100
AcDbEntity
  8
5MM
 62
     7
100
AcDbLine
 10
-1175.047220578642
 20
632.634064872228
 30
0.0
 11
-1175.047220578642
 21
607.634064872228
 31
0.0
  0
LINE
  5
24C
330
18
100
AcDbEntity
  8
5MM
 62
     7
100
AcDbLine
 10
-1222.509971607091
 20
632.634064872228
 30
0.0
 11
-1175.047220578642
 21
632.634064872228
 31
0.0
  0
LINE
  5
24D
330
18
100
AcDbEntity
  8
5MM
 62
     7
100
AcDbLine
 10
-1175.047220578642
 20
607.634064872228
 30
0.0
 11
-1085.614192602245
 21
600.634064872228
 31
0.0
  0
LINE
  5
24E
330
18
100
AcDbEntity
  8
5MM
 62
     7
100
AcDbLine
 10
-1225.130360571242
 20
582.634064872228
 30
0.0
 11
-1222.509971607091
 21
632.634064872228
 31
0.0
  0
LINE
  5
24F
330
18
100
AcDbEntity
  8
5MM
 62
     7
100
AcDbLine
 10
-1085.130360571243
 20
582.634064872228
 30
0.0
 11
-1085.130360571243
 21
600.634064872228
 31
0.0
  0
LINE
  5
250
330
18
100
AcDbEntity
  8
5MM
 62
     7
100
AcDbLine
 10
-1225.130360571242
 20
582.634064872228
 30
0.0
 11
-1195.056827364559
 21
582.634064872228
 31
0.0
  0
LINE
  5
251
330
18
100
AcDbEntity
  8
MADERA
 62
     7
100
AcDbLine
 10
-1192.056827364559
 20
582.634064872228
 30
0.0
 11
-1192.056827364559
 21
585.634064872228
 31
0.0
  0
LINE
  5
252
330
18
100
AcDbEntity
  8
MADERA
 62
     7
100
AcDbLine
 10
-1063.091640290787
 20
632.9656509340189
 30
0.0
 11
-1063.091640290787
 21
629.9656509340189
 31
0.0
  0
LINE
  5
253
330
18
100
AcDbEntity
  8
5MM
 62
     7
100
AcDbLine
 10
-1030.018107084104
 20
632.9656509340189
 30
0.0
 11
-1060.091640290787
 21
632.9656509340189
 31
0.0
  0
LINE
  5
254
330
18
100
AcDbEntity
  8
5MM
 62
     7
100
AcDbLine
 10
-1170.018107084104
 20
632.9656509340189
 30
0.0
 11
-1170.018107084104
 21
614.9656509340189
 31
0.0
  0
LINE
  5
255
330
18
100
AcDbEntity
  8
5MM
 62
     7
100
AcDbLine
 10
-1030.018107084104
 20
632.9656509340189
 30
0.0
 11
-1032.638496048255
 21
582.9656509340189
 31
0.0
  0
LINE
  5
256
330
18
100
AcDbEntity
  8
5MM
 62
     7
100
AcDbLine
 10
-1080.101247076705
 20
607.9656509340189
 30
0.0
 11
-1169.534275053102
 21
614.9656509340189
 31
0.0
  0
LINE
  5
257
330
18
100
AcDbEntity
  8
5MM
 62
     7
100
AcDbLine
 10
-1032.638496048255
 20
582.9656509340189
 30
0.0
 11
-1080.101247076705
 21
582.9656509340189
 31
0.0
  0
LINE
  5
258
330
18
100
AcDbEntity
  8
5MM
 62
     7
100
AcDbLine
 10
-1080.101247076705
 20
582.9656509340189
 30
0.0
 11
-1080.101247076705
 21
607.9656509340189
 31
0.0
  0
LINE
  5
259
330
18
100
AcDbEntity
  8
5MM
 62
     7
100
AcDbLine
 10
-1060.091640290787
 20
632.9656509340189
 30
0.0
 11
-1060.091640290787
 21
629.9656509340189
 31
0.0
  0
LINE
  5
25A
330
18
100
AcDbEntity
  8
5MM
 62
     7
100
AcDbLine
 10
-1060.091640290787
 20
629.9656509340189
 30
0.0
 11
-1063.091640290787
 21
629.9656509340189
 31
0.0
  0
LINE
  5
25B
330
18
100
AcDbEntity
  8
5MM
 62
     7
100
AcDbLine
 10
-1063.091640290787
 20
632.9656509340189
 30
0.0
 11
-1170.018107084104
 21
632.9656509340189
 31
0.0
  0
LINE
  5
25C
330
18
100
AcDbEntity
  8
5MM
 62
     7
100
AcDbLine
 10
-1230.663923705816
 20
634.0582543934634
 30
0.0
 11
-1230.663923705816
 21
584.0582543934634
 31
0.0
  0
LINE
  5
25D
330
18
100
AcDbEntity
  8
5MM
 62
     7
100
AcDbLine
 10
-1278.126674734266
 20
584.0582543934634
 30
0.0
 11
-1230.663923705816
 21
584.0582543934634
 31
0.0
  0
LINE
  5
25E
330
18
100
AcDbEntity
  8
5MM
 62
     7
100
AcDbLine
 10
-1278.126674734266
 20
634.0582543934634
 30
0.0
 11
-1230.663923705816
 21
634.0582543934634
 31
0.0
  0
LINE
  5
25F
330
18
100
AcDbEntity
  8
5MM
 62
     7
100
AcDbLine
 10
-1278.126674734266
 20
634.0582543934634
 30
0.0
 11
-1278.126674734266
 21
584.0582543934634
 31
0.0
  0
TEXT
  5
260
330
18
100
AcDbEntity
  8
0
 62
     7
100
AcDbText
 10
-794.098438746747
 20
-760.8904844995811
 30
0.0
 40
20.0
  1
5 mm
 50
90.0
100
AcDbText
  0
TEXT
  5
261
330
18
100
AcDbEntity
  8
0
 62
     7
100
AcDbText
 10
-742.6807996177063
 20
57.90052492470876
 30
0.0
 40
20.0
  1
5 mm
100
AcDbText
  0
MTEXT
  5
263
330
18
100
AcDbEntity
  8
0
 62
     7
100
AcDbMText
 10
-913.8949768522242
 20
-483.7956652392568
 30
0.0
 40
20.0
 41
311.1486
 46
0.0
 71
     1
 72
     1
  1
LIBRE PARA HACER 2 COPIAS MAS
 73
     1
 44
1.0
  0
LINE
  5
268
330
18
100
AcDbEntity
  8
0
 62
     7
100
AcDbLine
 10
-1291.280054341275
 20
569.85330780541
 30
0.0
 11
-991.2800543412749
 21
569.85330780541
 31
0.0
  0
LINE
  5
26A
330
18
100
AcDbEntity
  8
0
 62
     7
100
AcDbLine
 10
-991.2800543412749
 20
644.85330780541
 30
0.0
 11
-1291.280054341275
 21
644.85330780541
 31
0.0
  0
LINE
  5
26B
330
18
100
AcDbEntity
  8
0
 62
     7
100
AcDbLine
 10
-1291.280054341275
 20
644.85330780541
 30
0.0
 11
-1291.280054341275
 21
569.85330780541
 31
0.0
  0
LINE
  5
26C
330
18
100
AcDbEntity
  8
0
 62
     7
100
AcDbLine
 10
-991.2800543412749
 20
569.85330780541
 30
0.0
 11
-991.2800543412749
 21
644.85330780541
 31
0.0
  0
TEXT
  5
26D
330
18
100
AcDbEntity
  8
0
 62
     7
100
AcDbText
 10
-1208.515304771563
 20
539.4826679941248
 30
0.0
 40
20.0
  1
Balsa 5mm
100
AcDbText
  0
LINE
  5
27C
330
18
100
AcDbEntity
  8
ALAS
 62
     7
100
AcDbLine
 10
277.9481359193244
 20
-569.6086702804971
 30
0.0
 11
-153.5518640806758
 21
-569.6086702804971
 31
0.0
  0
LINE
  5
27D
330
18
100
AcDbEntity
  8
ALAS
 62
     7
100
AcDbLine
 10
167.9481359193246
 20
-615.6086702804971
 30
0.0
 11
-153.5518640806758
 21
-615.6086702804971
 31
0.0
  0
LINE
  5
27E
330
18
100
AcDbEntity
  8
ALAS
 62
     7
100
AcDbLine
 10
277.9481359193244
 20
-569.6086702804971
 30
0.0
 11
277.9481359193244
 21
-584.6086702804971
 31
0.0
  0
LINE
  5
27F
330
18
100
AcDbEntity
  8
ALAS
 62
     7
100
AcDbLine
 10
167.9481359193246
 20
-615.6086702804971
 30
0.0
 11
277.9481359193244
 21
-584.6086702804971
 31
0.0
  0
LINE
  5
280
330
18
100
AcDbEntity
  8
ALAS
 62
     7
100
AcDbLine
 10
-153.5518640806758
 20
-569.6086702804971
 30
0.0
 11
-153.5518640806758
 21
-615.6086702804971
 31
0.0
  0
LINE
  5
281
330
18
100
AcDbEntity
  8
ALAS
 62
     7
100
AcDbLine
 10
-153.5518640806758
 20
-667.1326625135559
 30
0.0
 11
-153.5518640806758
 21
-621.1326625135559
 31
0.0
  0
LINE
  5
282
330
18
100
AcDbEntity
  8
ALAS
 62
     7
100
AcDbLine
 10
167.9481359193246
 20
-621.1326625135559
 30
0.0
 11
277.9481359193244
 21
-652.1326625135559
 31
0.0
  0
LINE
  5
283
330
18
100
AcDbEntity
  8
ALAS
 62
     7
100
AcDbLine
 10
277.9481359193244
 20
-667.1326625135559
 30
0.0
 11
277.9481359193244
 21
-652.1326625135559
 31
0.0
  0
LINE
  5
284
330
18
100
AcDbEntity
  8
ALAS
 62
     7
100
AcDbLine
 10
167.9481359193246
 20
-621.1326625135559
 30
0.0
 11
-153.5518640806758
 21
-621.1326625135559
 31
0.0
  0
LINE
  5
285
330
18
100
AcDbEntity
  8
ALAS
 62
     7
100
AcDbLine
 10
277.9481359193244
 20
-667.1326625135559
 30
0.0
 11
-153.5518640806758
 21
-667.1326625135559
 31
0.0
  0
LINE
  5
286
330
18
100
AcDbEntity
  8
ALAS
 62
     7
100
AcDbLine
 10
277.9481359193244
 20
-560.3072328247083
 30
0.0
 11
-153.5518640806758
 21
-560.3072328247083
 31
0.0
  0
LINE
  5
287
330
18
100
AcDbEntity
  8
ALAS
 62
     7
100
AcDbLine
 10
167.9481359193246
 20
-514.3072328247083
 30
0.0
 11
-153.5518640806758
 21
-514.3072328247083
 31
0.0
  0
LINE
  5
288
330
18
100
AcDbEntity
  8
ALAS
 62
     7
100
AcDbLine
 10
277.9481359193244
 20
-560.3072328247083
 30
0.0
 11
277.9481359193244
 21
-545.3072328247083
 31
0.0
  0
LINE
  5
289
330
18
100
AcDbEntity
  8
ALAS
 62
     7
100
AcDbLine
 10
167.9481359193246
 20
-514.3072328247083
 30
0.0
 11
277.9481359193244
 21
-545.3072328247083
 31
0.0
  0
LINE
  5
28A
330
18
100
AcDbEntity
  8
ALAS
 62
     7
100
AcDbLine
 10
-153.5518640806758
 20
-560.3072328247083
 30
0.0
 11
-153.5518640806758
 21
-514.3072328247083
 31
0.0
  0
LINE
  5
28B
330
18
100
AcDbEntity
  8
ALAS
 62
     7
100
AcDbLine
 10
587.2614950659906
 20
-70.65960549958325
 30
0.0
 11
467.2614950659906
 21
-70.65960549958325
 31
0.0
  0
CIRCLE
  5
28C
330
18
100
AcDbEntity
  8
ALAS
 62
     7
100
AcDbCircle
 10
557.2812211568332
 20
43.83257302892909
 30
0.0
 40
1.5
  0
CIRCLE
  5
28D
330
18
100
AcDbEntity
  8
ALAS
 62
     7
100
AcDbCircle
 10
557.2952011365976
 20
79.35034546954259
 30
0.0
 40
1.5
  0
LINE
  5
28E
330
18
100
AcDbEntity
  8
ALAS
 62
     7
100
AcDbLine
 10
467.2614950659906
 20
109.3403945004167
 30
0.0
 11
587.2614950659906
 21
109.3403945004167
 31
0.0
  0
LINE
  5
28F
330
18
100
AcDbEntity
  8
ALAS
 62
     7
100
AcDbLine
 10
422.2614950659906
 20
39.34039450041675
 30
0.0
 11
467.2614950659906
 21
-70.65960549958325
 31
0.0
  0
LINE
  5
290
330
18
100
AcDbEntity
  8
ALAS
 62
     7
100
AcDbLine
 10
467.2614950659906
 20
109.3403945004167
 30
0.0
 11
422.2614950659906
 21
64.34039450041675
 31
0.0
  0
LINE
  5
291
330
18
100
AcDbEntity
  8
ALAS
 62
     7
100
AcDbLine
 10
422.2614950659906
 20
39.34039450041675
 30
0.0
 11
422.2614950659906
 21
64.34039450041675
 31
0.0
  0
LINE
  5
292
330
18
100
AcDbEntity
  8
ALAS
 62
     7
100
AcDbLine
 10
567.2614950659906
 20
-35.65960549958325
 30
0.0
 11
567.2614950659906
 21
-0.6596054995832503
 31
0.0
  0
LINE
  5
293
330
18
100
AcDbEntity
  8
ALAS
 62
     7
100
AcDbLine
 10
587.2614950659906
 20
-70.65960549958325
 30
0.0
 11
587.2614950659906
 21
-35.65960549958325
 31
0.0
  0
LINE
  5
294
330
18
100
AcDbEntity
  8
ALAS
 62
     7
100
AcDbLine
 10
567.2614950659906
 20
74.34039450041675
 30
0.0
 11
587.2614950659906
 21
74.34039450041675
 31
0.0
  0
LINE
  5
295
330
18
100
AcDbEntity
  8
ALAS
 62
     7
100
AcDbLine
 10
587.2614950659906
 20
-35.65960549958325
 30
0.0
 11
567.2614950659906
 21
-35.65960549958325
 31
0.0
  0
LINE
  5
296
330
18
100
AcDbEntity
  8
ALAS
 62
     7
100
AcDbLine
 10
567.2614950659906
 20
39.34039450041675
 30
0.0
 11
587.2614950659906
 21
39.34039450041675
 31
0.0
  0
LINE
  5
297
330
18
100
AcDbEntity
  8
ALAS
 62
     7
100
AcDbLine
 10
587.2614950659906
 20
-0.6596054995832503
 30
0.0
 11
567.2614950659906
 21
-0.6596054995832503
 31
0.0
  0
LINE
  5
298
330
18
100
AcDbEntity
  8
ALAS
 62
     7
100
AcDbLine
 10
587.2614950659906
 20
74.34039450041675
 30
0.0
 11
587.2614950659906
 21
109.3403945004167
 31
0.0
  0
LINE
  5
299
330
18
100
AcDbEntity
  8
ALAS
 62
     7
100
AcDbLine
 10
567.2614950659906
 20
39.34039450041675
 30
0.0
 11
567.2614950659906
 21
74.34039450041675
 31
0.0
  0
LINE
  5
29A
330
18
100
AcDbEntity
  8
ALAS
 62
     7
100
AcDbLine
 10
587.2614950659906
 20
-0.6596054995832503
 30
0.0
 11
587.2614950659906
 21
39.34039450041675
 31
0.0
  0
LINE
  5
29B
330
18
100
AcDbEntity
  8
ALAS
 62
     7
100
AcDbLine
 10
35.24172898648408
 20
-0.1900886462088067
 30
0.0
 11
35.24172898648408
 21
-35.19008864620881
 31
0.0
  0
LINE
  5
29C
330
18
100
AcDbEntity
  8
ALAS
 62
     7
100
AcDbLine
 10
55.24172898648408
 20
-35.19008864620881
 30
0.0
 11
55.24172898648408
 21
-85.1900886462088
 31
0.0
  0
LINE
  5
29D
330
18
100
AcDbEntity
  8
ALAS
 62
     7
100
AcDbLine
 10
55.24172898648408
 20
44.80991135379074
 30
0.0
 11
55.24172898648408
 21
-0.1900886462088067
 31
0.0
  0
LINE
  5
29E
330
18
100
AcDbEntity
  8
ALAS
 62
     7
100
AcDbLine
 10
35.24172898648408
 20
79.80991135379074
 30
0.0
 11
55.24172898648408
 21
79.80991135379074
 31
0.0
  0
LINE
  5
29F
330
18
100
AcDbEntity
  8
ALAS
 62
     7
100
AcDbLine
 10
35.24172898648408
 20
44.80991135379074
 30
0.0
 11
55.24172898648408
 21
44.80991135379074
 31
0.0
  0
LINE
  5
2A0
330
18
100
AcDbEntity
  8
ALAS
 62
     7
100
AcDbLine
 10
35.24172898648408
 20
-0.1900886462088067
 30
0.0
 11
55.24172898648408
 21
-0.1900886462088067
 31
0.0
  0
LINE
  5
2A1
330
18
100
AcDbEntity
  8
ALAS
 62
     7
100
AcDbLine
 10
35.24172898648408
 20
-35.19008864620881
 30
0.0
 11
55.24172898648408
 21
-35.19008864620881
 31
0.0
  0
LINE
  5
2A2
330
18
100
AcDbEntity
  8
ALAS
 62
     7
100
AcDbLine
 10
35.24172898648408
 20
79.80991135379074
 30
0.0
 11
35.24172898648408
 21
44.80991135379074
 31
0.0
  0
LINE
  5
2A3
330
18
100
AcDbEntity
  8
ALAS
 62
     7
100
AcDbLine
 10
55.24172898648408
 20
114.8099113537907
 30
0.0
 11
55.24172898648408
 21
79.80991135379074
 31
0.0
  0
LINE
  5
2A4
330
18
100
AcDbEntity
  8
ALAS
 62
     7
100
AcDbLine
 10
200.2417289864841
 20
114.8099113537907
 30
0.0
 11
200.2417289864841
 21
-85.1900886462088
 31
0.0
  0
LINE
  5
2A5
330
18
100
AcDbEntity
  8
ALAS
 62
     7
100
AcDbLine
 10
55.24172898648408
 20
114.8099113537907
 30
0.0
 11
200.2417289864841
 21
114.8099113537907
 31
0.0
  0
LINE
  5
2A6
330
18
100
AcDbEntity
  8
ALAS
 62
     7
100
AcDbLine
 10
55.24172898648408
 20
-85.1900886462088
 30
0.0
 11
200.2417289864841
 21
-85.1900886462088
 31
0.0
  0
LINE
  5
2A7
330
18
100
AcDbEntity
  8
MADERA
 62
     7
100
AcDbLine
 10
-165.6542457591067
 20
-803.6978343929693
 30
0.0
 11
684.3457542408935
 21
-803.6978343929693
 31
0.0
  0
LINE
  5
2A8
330
18
100
AcDbEntity
  8
MADERA
 62
     7
100
AcDbLine
 10
684.3457542408935
 20
-803.6978343929693
 30
0.0
 11
684.3457542408935
 21
-253.6978343929693
 31
0.0
  0
LINE
  5
2A9
330
18
100
AcDbEntity
  8
MADERA
 62
     7
100
AcDbLine
 10
684.3457542408935
 20
-253.6978343929693
 30
0.0
 11
-165.6542457591067
 21
-253.6978343929693
 31
0.0
  0
LINE
  5
2AA
330
18
100
AcDbEntity
  8
MADERA
 62
     7
100
AcDbLine
 10
-165.6542457591067
 20
-253.6978343929693
 30
0.0
 11
-165.6542457591067
 21
-803.6978343929693
 31
0.0
  0
LINE
  5
2AB
330
18
100
AcDbEntity
  8
ALAS
 62
     7
100
AcDbLine
 10
-3.746810881412102
 20
-85.1900886462088
 30
0.0
 11
-148.7468108814121
 21
-85.1900886462088
 31
0.0
  0
LINE
  5
2AC
330
18
100
AcDbEntity
  8
ALAS
 62
     7
100
AcDbLine
 10
-3.746810881412102
 20
114.8099113537907
 30
0.0
 11
-148.7468108814121
 21
114.8099113537907
 31
0.0
  0
LINE
  5
2AD
330
18
100
AcDbEntity
  8
ALAS
 62
     7
100
AcDbLine
 10
-148.7468108814121
 20
114.8099113537907
 30
0.0
 11
-148.7468108814121
 21
-85.1900886462088
 31
0.0
  0
LINE
  5
2AE
330
18
100
AcDbEntity
  8
ALAS
 62
     7
100
AcDbLine
 10
260.8907336582736
 20
-449.79946254017
 30
0.0
 11
628.9368919165738
 21
-449.79946254017
 31
0.0
  0
ARC
  5
2AF
330
18
100
AcDbEntity
  8
ALAS
 62
     7
100
AcDbCircle
 10
248.9368919165736
 20
-458.4554215868059
 30
0.0
 40
14.75872485693281
100
AcDbArc
 50
35.90887040007842
 51
144.0911295999244
  0
ARC
  5
2B0
330
18
100
AcDbEntity
  8
ALAS
 62
     7
100
AcDbCircle
 10
248.8840720732323
 20
-449.763668771858
 30
0.0
 40
4.788999129678814
100
AcDbArc
 50
180.0
 51
180.0
  0
LINE
  5
2B1
330
18
100
AcDbEntity
  8
ALAS
 62
     7
100
AcDbLine
 10
628.9368919165738
 20
-269.79946254017
 30
0.0
 11
-131.0631080834264
 21
-269.79946254017
 31
0.0
  0
LINE
  5
2B2
330
18
100
AcDbEntity
  8
ALAS
 62
     7
100
AcDbLine
 10
-131.0631080834264
 20
-449.79946254017
 30
0.0
 11
236.9830501748738
 21
-449.79946254017
 31
0.0
  0
LINE
  5
2B3
330
18
100
AcDbEntity
  8
ALAS
 62
     7
100
AcDbLine
 10
-3.746810881412102
 20
114.8099113537907
 30
0.0
 11
-3.746810881412102
 21
79.80991135379074
 31
0.0
  0
LINE
  5
2B4
330
18
100
AcDbEntity
  8
ALAS
 62
     7
100
AcDbLine
 10
648.9368919165738
 20
-414.79946254017
 30
0.0
 11
648.9368919165738
 21
-379.79946254017
 31
0.0
  0
LINE
  5
2B5
330
18
100
AcDbEntity
  8
ALAS
 62
     7
100
AcDbLine
 10
-151.0631080834264
 20
-304.79946254017
 30
0.0
 11
-151.0631080834264
 21
-339.79946254017
 31
0.0
  0
LINE
  5
2B6
330
18
100
AcDbEntity
  8
ALAS
 62
     7
100
AcDbLine
 10
628.9368919165738
 20
-449.79946254017
 30
0.0
 11
628.9368919165738
 21
-414.79946254017
 31
0.0
  0
LINE
  5
2B7
330
18
100
AcDbEntity
  8
ALAS
 62
     7
100
AcDbLine
 10
16.2531891185879
 20
79.80991135379074
 30
0.0
 11
16.2531891185879
 21
44.80991135379074
 31
0.0
  0
LINE
  5
2B8
330
18
100
AcDbEntity
  8
ALAS
 62
     7
100
AcDbLine
 10
-131.0631080834264
 20
-269.79946254017
 30
0.0
 11
-131.0631080834264
 21
-304.79946254017
 31
0.0
  0
LINE
  5
2B9
330
18
100
AcDbEntity
  8
ALAS
 62
     7
100
AcDbLine
 10
648.9368919165738
 20
-304.79946254017
 30
0.0
 11
628.9368919165738
 21
-304.79946254017
 31
0.0
  0
LINE
  5
2BA
330
18
100
AcDbEntity
  8
ALAS
 62
     7
100
AcDbLine
 10
-151.0631080834264
 20
-414.79946254017
 30
0.0
 11
-131.0631080834264
 21
-414.79946254017
 31
0.0
  0
LINE
  5
2BB
330
18
100
AcDbEntity
  8
ALAS
 62
     7
100
AcDbLine
 10
628.9368919165738
 20
-414.79946254017
 30
0.0
 11
648.9368919165738
 21
-414.79946254017
 31
0.0
  0
LINE
  5
2BC
330
18
100
AcDbEntity
  8
ALAS
 62
     7
100
AcDbLine
 10
648.9368919165738
 20
-339.79946254017
 30
0.0
 11
628.9368919165738
 21
-339.79946254017
 31
0.0
  0
LINE
  5
2BD
330
18
100
AcDbEntity
  8
ALAS
 62
     7
100
AcDbLine
 10
628.9368919165738
 20
-379.79946254017
 30
0.0
 11
648.9368919165738
 21
-379.79946254017
 31
0.0
  0
LINE
  5
2BE
330
18
100
AcDbEntity
  8
ALAS
 62
     7
100
AcDbLine
 10
-151.0631080834264
 20
-379.79946254017
 30
0.0
 11
-131.0631080834264
 21
-379.79946254017
 31
0.0
  0
LINE
  5
2BF
330
18
100
AcDbEntity
  8
ALAS
 62
     7
100
AcDbLine
 10
16.2531891185879
 20
-35.19008864620881
 30
0.0
 11
-3.746810881412102
 21
-35.19008864620881
 31
0.0
  0
LINE
  5
2C0
330
18
100
AcDbEntity
  8
ALAS
 62
     7
100
AcDbLine
 10
16.2531891185879
 20
-0.1900886462088067
 30
0.0
 11
-3.746810881412102
 21
-0.1900886462088067
 31
0.0
  0
LINE
  5
2C1
330
18
100
AcDbEntity
  8
ALAS
 62
     7
100
AcDbLine
 10
16.2531891185879
 20
44.80991135379074
 30
0.0
 11
-3.746810881412102
 21
44.80991135379074
 31
0.0
  0
LINE
  5
2C2
330
18
100
AcDbEntity
  8
ALAS
 62
     7
100
AcDbLine
 10
16.2531891185879
 20
79.80991135379074
 30
0.0
 11
-3.746810881412102
 21
79.80991135379074
 31
0.0
  0
LINE
  5
2C3
330
18
100
AcDbEntity
  8
ALAS
 62
     7
100
AcDbLine
 10
-131.0631080834264
 20
-304.79946254017
 30
0.0
 11
-151.0631080834264
 21
-304.79946254017
 31
0.0
  0
LINE
  5
2C4
330
18
100
AcDbEntity
  8
ALAS
 62
     7
100
AcDbLine
 10
-131.0631080834264
 20
-339.79946254017
 30
0.0
 11
-151.0631080834264
 21
-339.79946254017
 31
0.0
  0
LINE
  5
2C5
330
18
100
AcDbEntity
  8
ALAS
 62
     7
100
AcDbLine
 10
-3.746810881412102
 20
44.80991135379074
 30
0.0
 11
-3.746810881412102
 21
-0.1900886462088067
 31
0.0
  0
LINE
  5
2C6
330
18
100
AcDbEntity
  8
ALAS
 62
     7
100
AcDbLine
 10
-3.746810881412102
 20
-35.19008864620881
 30
0.0
 11
-3.746810881412102
 21
-85.1900886462088
 31
0.0
  0
LINE
  5
2C7
330
18
100
AcDbEntity
  8
ALAS
 62
     7
100
AcDbLine
 10
16.2531891185879
 20
-0.1900886462088067
 30
0.0
 11
16.2531891185879
 21
-35.19008864620881
 31
0.0
  0
LINE
  5
2C8
330
18
100
AcDbEntity
  8
ALAS
 62
     7
100
AcDbLine
 10
628.9368919165738
 20
-304.79946254017
 30
0.0
 11
628.9368919165738
 21
-269.79946254017
 31
0.0
  0
LINE
  5
2C9
330
18
100
AcDbEntity
  8
ALAS
 62
     7
100
AcDbLine
 10
648.9368919165738
 20
-339.79946254017
 30
0.0
 11
648.9368919165738
 21
-304.79946254017
 31
0.0
  0
LINE
  5
2CA
330
18
100
AcDbEntity
  8
ALAS
 62
     7
100
AcDbLine
 10
628.9368919165738
 20
-379.79946254017
 30
0.0
 11
628.9368919165738
 21
-339.79946254017
 31
0.0
  0
LINE
  5
2CB
330
18
100
AcDbEntity
  8
ALAS
 62
     7
100
AcDbLine
 10
-131.0631080834264
 20
-339.79946254017
 30
0.0
 11
-131.0631080834264
 21
-379.79946254017
 31
0.0
  0
LINE
  5
2CC
330
18
100
AcDbEntity
  8
ALAS
 62
     7
100
AcDbLine
 10
-151.0631080834264
 20
-379.79946254017
 30
0.0
 11
-151.0631080834264
 21
-414.79946254017
 31
0.0
  0
LINE
  5
2CD
330
18
100
AcDbEntity
  8
ALAS
 62
     7
100
AcDbLine
 10
-131.0631080834264
 20
-414.79946254017
 30
0.0
 11
-131.0631080834264
 21
-449.79946254017
 31
0.0
  0
LINE
  5
2CE
330
18
100
AcDbEntity
  8
ALAS
 62
     7
100
AcDbLine
 10
223.7558543636503
 20
-0.6596054995832503
 30
0.0
 11
223.7558543636503
 21
39.34039450041675
 31
0.0
  0
LINE
  5
2CF
330
18
100
AcDbEntity
  8
ALAS
 62
     7
100
AcDbLine
 10
243.7558543636503
 20
39.34039450041675
 30
0.0
 11
243.7558543636503
 21
74.34039450041675
 31
0.0
  0
LINE
  5
2D0
330
18
100
AcDbEntity
  8
ALAS
 62
     7
100
AcDbLine
 10
223.7558543636503
 20
74.34039450041675
 30
0.0
 11
223.7558543636503
 21
109.3403945004167
 31
0.0
  0
LINE
  5
2D1
330
18
100
AcDbEntity
  8
ALAS
 62
     7
100
AcDbLine
 10
630.4507412104119
 20
256.7451848758071
 30
0.0
 11
630.4507412104119
 21
291.7451848758071
 31
0.0
  0
LINE
  5
2D2
330
18
100
AcDbEntity
  8
ALAS
 62
     7
100
AcDbLine
 10
-129.5492587895881
 20
211.7451848758076
 30
0.0
 11
-129.5492587895881
 21
176.7451848758076
 31
0.0
  0
LINE
  5
2D3
330
18
100
AcDbEntity
  8
ALAS
 62
     7
100
AcDbLine
 10
650.4507412104119
 20
211.7451848758071
 30
0.0
 11
650.4507412104119
 21
256.7451848758071
 31
0.0
  0
LINE
  5
2D4
330
18
100
AcDbEntity
  8
ALAS
 62
     7
100
AcDbLine
 10
-149.5492587895881
 20
176.7451848758076
 30
0.0
 11
-149.5492587895881
 21
126.7451848758076
 31
0.0
  0
LINE
  5
2D5
330
18
100
AcDbEntity
  8
ALAS
 62
     7
100
AcDbLine
 10
-149.5492587895881
 20
256.7451848758071
 30
0.0
 11
-149.5492587895881
 21
211.7451848758076
 31
0.0
  0
LINE
  5
2D6
330
18
100
AcDbEntity
  8
ALAS
 62
     7
100
AcDbLine
 10
650.4507412104119
 20
291.7451848758071
 30
0.0
 11
650.4507412104119
 21
326.7451848758071
 31
0.0
  0
LINE
  5
2D7
330
18
100
AcDbEntity
  8
ALAS
 62
     7
100
AcDbLine
 10
-129.5492587895881
 20
291.7451848758071
 30
0.0
 11
-149.5492587895881
 21
291.7451848758071
 31
0.0
  0
LINE
  5
2D8
330
18
100
AcDbEntity
  8
ALAS
 62
     7
100
AcDbLine
 10
-129.5492587895881
 20
256.7451848758071
 30
0.0
 11
-149.5492587895881
 21
256.7451848758071
 31
0.0
  0
LINE
  5
2D9
330
18
100
AcDbEntity
  8
ALAS
 62
     7
100
AcDbLine
 10
-129.5492587895881
 20
211.7451848758076
 30
0.0
 11
-149.5492587895881
 21
211.7451848758076
 31
0.0
  0
LINE
  5
2DA
330
18
100
AcDbEntity
  8
ALAS
 62
     7
100
AcDbLine
 10
-129.5492587895881
 20
176.7451848758076
 30
0.0
 11
-149.5492587895881
 21
176.7451848758076
 31
0.0
  0
LINE
  5
2DB
330
18
100
AcDbEntity
  8
ALAS
 62
     7
100
AcDbLine
 10
650.4507412104119
 20
256.7451848758071
 30
0.0
 11
630.4507412104119
 21
256.7451848758071
 31
0.0
  0
LINE
  5
2DC
330
18
100
AcDbEntity
  8
ALAS
 62
     7
100
AcDbLine
 10
650.4507412104119
 20
211.7451848758071
 30
0.0
 11
630.4507412104119
 21
211.7451848758071
 31
0.0
  0
LINE
  5
2DD
330
18
100
AcDbEntity
  8
ALAS
 62
     7
100
AcDbLine
 10
650.4507412104119
 20
176.7451848758071
 30
0.0
 11
630.4507412104119
 21
176.7451848758071
 31
0.0
  0
LINE
  5
2DE
330
18
100
AcDbEntity
  8
ALAS
 62
     7
100
AcDbLine
 10
223.7558543636503
 20
-0.6596054995832503
 30
0.0
 11
243.7558543636503
 21
-0.6596054995832503
 31
0.0
  0
LINE
  5
2DF
330
18
100
AcDbEntity
  8
ALAS
 62
     7
100
AcDbLine
 10
243.7558543636503
 20
39.34039450041675
 30
0.0
 11
223.7558543636503
 21
39.34039450041675
 31
0.0
  0
LINE
  5
2E0
330
18
100
AcDbEntity
  8
ALAS
 62
     7
100
AcDbLine
 10
223.7558543636503
 20
-35.65960549958325
 30
0.0
 11
243.7558543636503
 21
-35.65960549958325
 31
0.0
  0
LINE
  5
2E1
330
18
100
AcDbEntity
  8
ALAS
 62
     7
100
AcDbLine
 10
243.7558543636503
 20
74.34039450041675
 30
0.0
 11
223.7558543636503
 21
74.34039450041675
 31
0.0
  0
LINE
  5
2E2
330
18
100
AcDbEntity
  8
ALAS
 62
     7
100
AcDbLine
 10
650.4507412104119
 20
291.7451848758071
 30
0.0
 11
630.4507412104119
 21
291.7451848758071
 31
0.0
  0
LINE
  5
2E3
330
18
100
AcDbEntity
  8
ALAS
 62
     7
100
AcDbLine
 10
-129.5492587895881
 20
291.7451848758071
 30
0.0
 11
-129.5492587895881
 21
256.7451848758071
 31
0.0
  0
LINE
  5
2E4
330
18
100
AcDbEntity
  8
ALAS
 62
     7
100
AcDbLine
 10
223.7558543636503
 20
-70.65960549958325
 30
0.0
 11
223.7558543636503
 21
-35.65960549958325
 31
0.0
  0
LINE
  5
2E5
330
18
100
AcDbEntity
  8
ALAS
 62
     7
100
AcDbLine
 10
630.4507412104119
 20
176.7451848758071
 30
0.0
 11
630.4507412104119
 21
211.7451848758071
 31
0.0
  0
LINE
  5
2E6
330
18
100
AcDbEntity
  8
ALAS
 62
     7
100
AcDbLine
 10
650.4507412104119
 20
126.7451848758071
 30
0.0
 11
650.4507412104119
 21
176.7451848758071
 31
0.0
  0
LINE
  5
2E7
330
18
100
AcDbEntity
  8
ALAS
 62
     7
100
AcDbLine
 10
243.7558543636503
 20
-35.65960549958325
 30
0.0
 11
243.7558543636503
 21
-0.6596054995832503
 31
0.0
  0
LINE
  5
2E8
330
18
100
AcDbEntity
  8
ALAS
 62
     7
100
AcDbLine
 10
-149.5492587895881
 20
326.7451848758071
 30
0.0
 11
-149.5492587895881
 21
291.7451848758071
 31
0.0
  0
LINE
  5
2E9
330
18
100
AcDbEntity
  8
ALAS
 62
     7
100
AcDbLine
 10
650.4507412104119
 20
326.7451848758071
 30
0.0
 11
-149.5492587895881
 21
326.7451848758071
 31
0.0
  0
LINE
  5
2EA
330
18
100
AcDbEntity
  8
ALAS
 62
     7
100
AcDbLine
 10
388.7558543636503
 20
39.34039450041675
 30
0.0
 11
388.7558543636503
 21
64.34039450041675
 31
0.0
  0
LINE
  5
2EB
330
18
100
AcDbEntity
  8
ALAS
 62
     7
100
AcDbLine
 10
343.7558543636503
 20
109.3403945004167
 30
0.0
 11
388.7558543636503
 21
64.34039450041675
 31
0.0
  0
LINE
  5
2EC
330
18
100
AcDbEntity
  8
ALAS
 62
     7
100
AcDbLine
 10
388.7558543636503
 20
39.34039450041675
 30
0.0
 11
343.7558543636503
 21
-70.65960549958325
 31
0.0
  0
LINE
  5
2ED
330
18
100
AcDbEntity
  8
ALAS
 62
     7
100
AcDbLine
 10
343.7558543636503
 20
109.3403945004167
 30
0.0
 11
223.7558543636503
 21
109.3403945004167
 31
0.0
  0
LINE
  5
2EE
330
18
100
AcDbEntity
  8
ALAS
 62
     7
100
AcDbLine
 10
650.4507412104119
 20
126.7451848758071
 30
0.0
 11
-149.5492587895881
 21
126.7451848758076
 31
0.0
  0
CIRCLE
  5
2EF
330
18
100
AcDbEntity
  8
ALAS
 62
     7
100
AcDbCircle
 10
253.7221482930433
 20
79.35034546954259
 30
0.0
 40
1.5
  0
CIRCLE
  5
2F0
330
18
100
AcDbEntity
  8
ALAS
 62
     7
100
AcDbCircle
 10
253.7361282728077
 20
43.83257302892909
 30
0.0
 40
1.5
  0
LINE
  5
2F1
330
18
100
AcDbEntity
  8
ALAS
 62
     7
100
AcDbLine
 10
223.7558543636503
 20
-70.65960549958325
 30
0.0
 11
343.7558543636503
 21
-70.65960549958325
 31
0.0
  0
LINE
  5
2F2
330
18
100
AcDbEntity
  8
MADERA
 62
     7
100
AcDbLine
 10
-2590.546706986222
 20
-288.6555327635863
 30
0.0
 11
-1765.546706986222
 21
-288.6555327635864
 31
0.0
  0
LINE
  5
2F3
330
18
100
AcDbEntity
  8
MADERA
 62
     7
100
AcDbLine
 10
-2590.546706986222
 20
986.3444672364133
 30
0.0
 11
-2590.546706986222
 21
-288.6555327635863
 31
0.0
  0
LINE
  5
2F4
330
18
100
AcDbEntity
  8
MADERA
 62
     7
100
AcDbLine
 10
-1765.546706986222
 20
986.3444672364133
 30
0.0
 11
-2590.546706986222
 21
986.3444672364133
 31
0.0
  0
LINE
  5
2F5
330
18
100
AcDbEntity
  8
MADERA
 62
     7
100
AcDbLine
 10
-1765.546706986222
 20
-288.6555327635864
 30
0.0
 11
-1765.546706986222
 21
986.3444672364133
 31
0.0
  0
TEXT
  5
2F6
330
18
100
AcDbEntity
  8
MADERA
 62
     7
100
AcDbText
 10
592.3084507695478
 20
-780.4097754906627
 30
0.0
 40
20.0
  1
3 mm
100
AcDbText
  0
LINE
  5
2F7
330
18
100
AcDbEntity
  8
MADERA
 62
     7
100
AcDbLine
 10
612.2986564203331
 20
-546.5148282585008
 30
0.0
 11
529.2986564203331
 21
-546.5148282585008
 31
0.0
  0
LINE
  5
2F8
330
18
100
AcDbEntity
  8
MADERA
 62
     7
100
AcDbLine
 10
529.2986564203331
 20
-546.5148282585008
 30
0.0
 11
529.2986564203331
 21
-458.5148282585008
 31
0.0
  0
LINE
  5
2F9
330
18
100
AcDbEntity
  8
MADERA
 62
     7
100
AcDbLine
 10
529.2986564203331
 20
-458.5148282585008
 30
0.0
 11
612.2986564203331
 21
-546.5148282585008
 31
0.0
  0
LINE
  5
2FA
330
18
100
AcDbEntity
  8
MADERA
 62
     7
100
AcDbLine
 10
505.7282222035612
 20
-460.8147122240864
 30
0.0
 11
422.7282222035612
 21
-548.8147122240864
 31
0.0
  0
LINE
  5
2FB
330
18
100
AcDbEntity
  8
MADERA
 62
     7
100
AcDbLine
 10
505.7282222035612
 20
-548.8147122240864
 30
0.0
 11
505.7282222035612
 21
-460.8147122240864
 31
0.0
  0
LINE
  5
2FC
330
18
100
AcDbEntity
  8
MADERA
 62
     7
100
AcDbLine
 10
422.7282222035612
 20
-548.8147122240864
 30
0.0
 11
505.7282222035612
 21
-548.8147122240864
 31
0.0
  0
LINE
  5
2FD
330
18
100
AcDbEntity
  8
MADERA
 62
     7
100
AcDbLine
 10
414.5853436504688
 20
-536.9093296502322
 30
0.0
 11
300.5853436504678
 21
-575.9093296502322
 31
0.0
  0
LINE
  5
2FE
330
18
100
AcDbEntity
  8
MADERA
 62
     7
100
AcDbLine
 10
300.5853436504688
 20
-462.9093296502322
 30
0.0
 11
414.5853436504688
 21
-501.9093296502322
 31
0.0
  0
LINE
  5
2FF
330
18
100
AcDbEntity
  8
MADERA
 62
     7
100
AcDbLine
 10
414.5853436504688
 20
-536.9093296502322
 30
0.0
 11
414.5853436504688
 21
-501.9093296502322
 31
0.0
  0
LINE
  5
300
330
18
100
AcDbEntity
  8
MADERA
 62
     7
100
AcDbLine
 10
300.5853436504678
 20
-575.9093296502322
 30
0.0
 11
300.5853436504688
 21
-462.9093296502322
 31
0.0
  0
LINE
  5
301
330
18
100
AcDbEntity
  8
MADERA
 62
     7
100
AcDbLine
 10
644.4700119045231
 20
-452.9363611610167
 30
0.0
 11
673.7975158790862
 21
-421.4896203025112
 31
0.0
  0
LINE
  5
302
330
18
100
AcDbEntity
  8
MADERA
 62
     7
100
AcDbLine
 10
631.4366255770194
 20
-525.5595726077574
 30
0.0
 11
644.4700119045231
 21
-452.9363611610167
 31
0.0
  0
LINE
  5
303
330
18
100
AcDbEntity
  8
MADERA
 62
     7
100
AcDbLine
 10
673.7975158790862
 20
-421.4896203025112
 30
0.0
 11
631.4366255770194
 21
-525.5595726077574
 31
0.0
  0
LINE
  5
304
330
18
100
AcDbEntity
  8
MADERA
 62
     7
100
AcDbLine
 10
372.9632737367294
 20
-566.109350718599
 30
0.0
 11
267.9632737367294
 21
-606.109350718599
 31
0.0
  0
LINE
  5
305
330
18
100
AcDbEntity
  8
MADERA
 62
     7
100
AcDbLine
 10
552.9632737367294
 20
-566.109350718599
 30
0.0
 11
443.9632737367294
 21
-606.109350718599
 31
0.0
  0
LINE
  5
306
330
18
100
AcDbEntity
  8
MADERA
 62
     7
100
AcDbLine
 10
267.9632737367294
 20
-606.109350718599
 30
0.0
 11
443.9632737367294
 21
-606.109350718599
 31
0.0
  0
LINE
  5
307
330
18
100
AcDbEntity
  8
MADERA
 62
     7
100
AcDbLine
 10
372.9632737367294
 20
-566.109350718599
 30
0.0
 11
552.9632737367294
 21
-566.109350718599
 31
0.0
  0
LINE
  5
308
330
18
100
AcDbEntity
  8
MADERA
 62
     7
100
AcDbLine
 10
670.4091553978644
 20
-532.0027341091861
 30
0.0
 11
670.4091553978644
 21
-489.0027341091861
 31
0.0
  0
LINE
  5
309
330
18
100
AcDbEntity
  8
MADERA
 62
     7
100
AcDbLine
 10
630.4091553978644
 20
-594.0027341091861
 30
0.0
 11
670.4091553978644
 21
-532.0027341091861
 31
0.0
  0
LINE
  5
30A
330
18
100
AcDbEntity
  8
MADERA
 62
     7
100
AcDbLine
 10
670.4091553978644
 20
-489.0027341091861
 30
0.0
 11
630.4091553978644
 21
-594.0027341091861
 31
0.0
  0
LINE
  5
30B
330
18
100
AcDbEntity
  8
MADERA
 62
     7
100
AcDbLine
 10
470.1946268285558
 20
-625.3419771481701
 30
0.0
 11
575.1946268285558
 21
-665.3419771481701
 31
0.0
  0
LINE
  5
30C
330
18
100
AcDbEntity
  8
MADERA
 62
     7
100
AcDbLine
 10
290.1946268285558
 20
-625.3419771481701
 30
0.0
 11
399.1946268285558
 21
-665.3419771481701
 31
0.0
  0
LINE
  5
30D
330
18
100
AcDbEntity
  8
MADERA
 62
     7
100
AcDbLine
 10
575.1946268285558
 20
-665.3419771481701
 30
0.0
 11
399.1946268285558
 21
-665.3419771481701
 31
0.0
  0
LINE
  5
30E
330
18
100
AcDbEntity
  8
MADERA
 62
     7
100
AcDbLine
 10
470.1946268285558
 20
-625.3419771481701
 30
0.0
 11
290.1946268285558
 21
-625.3419771481701
 31
0.0
  0
LINE
  5
30F
330
18
100
AcDbEntity
  8
ALAS
 62
     7
100
AcDbLine
 10
-153.5518640806758
 20
-462.7832405916495
 30
0.0
 11
-153.5518640806758
 21
-508.7832405916495
 31
0.0
  0
LINE
  5
310
330
18
100
AcDbEntity
  8
ALAS
 62
     7
100
AcDbLine
 10
167.9481359193246
 20
-508.7832405916495
 30
0.0
 11
277.9481359193244
 21
-477.7832405916495
 31
0.0
  0
LINE
  5
311
330
18
100
AcDbEntity
  8
ALAS
 62
     7
100
AcDbLine
 10
277.9481359193244
 20
-462.7832405916495
 30
0.0
 11
277.9481359193244
 21
-477.7832405916495
 31
0.0
  0
LINE
  5
312
330
18
100
AcDbEntity
  8
ALAS
 62
     7
100
AcDbLine
 10
167.9481359193246
 20
-508.7832405916495
 30
0.0
 11
-153.5518640806758
 21
-508.7832405916495
 31
0.0
  0
LINE
  5
313
330
18
100
AcDbEntity
  8
ALAS
 62
     7
100
AcDbLine
 10
277.9481359193244
 20
-462.7832405916495
 30
0.0
 11
-153.5518640806758
 21
-462.7832405916495
 31
0.0
  0
CIRCLE
  5
769
330
18
100
AcDbEntity
  8
MADERA
 62
     7
100
AcDbCircle
 10
-196.1760887037505
 20
611.4359984858879
 30
0.0
 40
5.0
  0
CIRCLE
  5
76A
330
18
100
AcDbEntity
  8
MADERA
 62
     7
100
AcDbCircle
 10
-190.6606558104955
 20
616.9514313791431
 30
0.0
 40
1.500070993674854
  0
CIRCLE
  5
76B
330
18
100
AcDbEntity
  8
MADERA
 62
     7
100
AcDbCircle
 10
-201.6685619404903
 20
605.8976059361173
 30
0.0
 40
1.524876186102119
  0
CIRCLE
  5
76C
330
18
100
AcDbEntity
  8
MADERA
 62
     7
100
AcDbCircle
 10
-189.4511130714233
 20
604.7259452756712
 30
0.0
 40
1.500189308692825
  0
CIRCLE
  5
76D
330
18
100
AcDbEntity
  8
MADERA
 62
     7
100
AcDbCircle
 10
-202.8882865732418
 20
618.1481963553788
 30
0.0
 40
1.492488280125144
  0
LINE
  5
76E
330
18
100
AcDbEntity
  8
MADERA
 62
     7
100
AcDbLine
 10
-216.1760887037505
 20
636.4359984858879
 30
0.0
 11
-176.1760887037505
 21
636.4359984858879
 31
0.0
  0
LINE
  5
76F
330
18
100
AcDbEntity
  8
MADERA
 62
     7
100
AcDbLine
 10
-216.1760887037505
 20
586.4359984858879
 30
0.0
 11
-176.1760887037505
 21
586.4359984858879
 31
0.0
  0
LINE
  5
770
330
18
100
AcDbEntity
  8
MADERA
 62
     7
100
AcDbLine
 10
-171.1760887037505
 20
591.4359984858879
 30
0.0
 11
-171.1760887037505
 21
631.4359984858879
 31
0.0
  0
LINE
  5
771
330
18
100
AcDbEntity
  8
MADERA
 62
     7
100
AcDbLine
 10
-221.1760887037505
 20
591.4359984858879
 30
0.0
 11
-221.1760887037505
 21
631.4359984858879
 31
0.0
  0
ARC
  5
772
330
18
100
AcDbEntity
  8
MADERA
 62
     7
100
AcDbCircle
 10
-176.1760887037505
 20
631.4359984858879
 30
0.0
 40
5.0
100
AcDbArc
 50
0.0
 51
90.0
  0
ARC
  5
773
330
18
100
AcDbEntity
  8
MADERA
 62
     7
100
AcDbCircle
 10
-216.1760887037505
 20
631.4359984858879
 30
0.0
 40
5.0
100
AcDbArc
 50
90.0
 51
180.0
  0
ARC
  5
774
330
18
100
AcDbEntity
  8
MADERA
 62
     7
100
AcDbCircle
 10
-216.1760887037505
 20
591.4359984858879
 30
0.0
 40
5.0
100
AcDbArc
 50
180.0
 51
270.0
  0
ARC
  5
775
330
18
100
AcDbEntity
  8
MADERA
 62
     7
100
AcDbCircle
 10
-176.1760887037505
 20
591.4359984858879
 30
0.0
 40
5.0
100
AcDbArc
 50
270.0
 51
360.0
  0
CIRCLE
  5
776
330
18
100
AcDbEntity
  8
MADERA
 62
     7
100
AcDbCircle
 10
-259.2119503888595
 20
611.4359984858879
 30
0.0
 40
5.0
  0
CIRCLE
  5
777
330
18
100
AcDbEntity
  8
MADERA
 62
     7
100
AcDbCircle
 10
-253.6965174956046
 20
616.9514313791431
 30
0.0
 40
1.500070993674854
  0
CIRCLE
  5
778
330
18
100
AcDbEntity
  8
MADERA
 62
     7
100
AcDbCircle
 10
-264.7044236255994
 20
605.8976059361173
 30
0.0
 40
1.524876186102119
  0
CIRCLE
  5
779
330
18
100
AcDbEntity
  8
MADERA
 62
     7
100
AcDbCircle
 10
-252.4869747565323
 20
604.7259452756712
 30
0.0
 40
1.500189308692825
  0
CIRCLE
  5
77A
330
18
100
AcDbEntity
  8
MADERA
 62
     7
100
AcDbCircle
 10
-265.9241482583508
 20
618.1481963553788
 30
0.0
 40
1.492488280125144
  0
LINE
  5
77B
330
18
100
AcDbEntity
  8
MADERA
 62
     7
100
AcDbLine
 10
-279.2119503888595
 20
636.4359984858879
 30
0.0
 11
-239.2119503888595
 21
636.4359984858879
 31
0.0
  0
LINE
  5
77C
330
18
100
AcDbEntity
  8
MADERA
 62
     7
100
AcDbLine
 10
-279.2119503888595
 20
586.4359984858879
 30
0.0
 11
-239.2119503888595
 21
586.4359984858879
 31
0.0
  0
LINE
  5
77D
330
18
100
AcDbEntity
  8
MADERA
 62
     7
100
AcDbLine
 10
-234.2119503888595
 20
591.4359984858879
 30
0.0
 11
-234.2119503888595
 21
631.4359984858879
 31
0.0
  0
LINE
  5
77E
330
18
100
AcDbEntity
  8
MADERA
 62
     7
100
AcDbLine
 10
-284.2119503888595
 20
591.4359984858879
 30
0.0
 11
-284.2119503888595
 21
631.4359984858879
 31
0.0
  0
ARC
  5
77F
330
18
100
AcDbEntity
  8
MADERA
 62
     7
100
AcDbCircle
 10
-239.2119503888595
 20
631.4359984858879
 30
0.0
 40
5.0
100
AcDbArc
 50
0.0
 51
90.0
  0
ARC
  5
780
330
18
100
AcDbEntity
  8
MADERA
 62
     7
100
AcDbCircle
 10
-279.2119503888595
 20
631.4359984858879
 30
0.0
 40
5.0
100
AcDbArc
 50
90.0
 51
180.0
  0
ARC
  5
781
330
18
100
AcDbEntity
  8
MADERA
 62
     7
100
AcDbCircle
 10
-279.2119503888595
 20
591.4359984858879
 30
0.0
 40
5.0
100
AcDbArc
 50
180.0
 51
270.0
  0
ARC
  5
782
330
18
100
AcDbEntity
  8
MADERA
 62
     7
100
AcDbCircle
 10
-239.2119503888595
 20
591.4359984858879
 30
0.0
 40
5.0
100
AcDbArc
 50
270.0
 51
360.0
  0
ARC
  5
783
330
18
100
AcDbEntity
  8
MADERA
 62
     7
100
AcDbCircle
 10
-308.1945914782251
 20
591.4359984858879
 30
0.0
 40
5.0
100
AcDbArc
 50
270.0
 51
360.0
  0
ARC
  5
784
330
18
100
AcDbEntity
  8
MADERA
 62
     7
100
AcDbCircle
 10
-348.1945914782251
 20
591.4359984858879
 30
0.0
 40
5.0
100
AcDbArc
 50
180.0
 51
270.0
  0
ARC
  5
785
330
18
100
AcDbEntity
  8
MADERA
 62
     7
100
AcDbCircle
 10
-348.1945914782251
 20
631.4359984858879
 30
0.0
 40
5.0
100
AcDbArc
 50
90.0
 51
180.0
  0
ARC
  5
786
330
18
100
AcDbEntity
  8
MADERA
 62
     7
100
AcDbCircle
 10
-308.1945914782251
 20
631.4359984858879
 30
0.0
 40
5.0
100
AcDbArc
 50
0.0
 51
90.0
  0
LINE
  5
787
330
18
100
AcDbEntity
  8
MADERA
 62
     7
100
AcDbLine
 10
-353.1945914782251
 20
591.4359984858879
 30
0.0
 11
-353.1945914782251
 21
631.4359984858879
 31
0.0
  0
LINE
  5
788
330
18
100
AcDbEntity
  8
MADERA
 62
     7
100
AcDbLine
 10
-303.1945914782251
 20
591.4359984858879
 30
0.0
 11
-303.1945914782251
 21
631.4359984858879
 31
0.0
  0
LINE
  5
789
330
18
100
AcDbEntity
  8
MADERA
 62
     7
100
AcDbLine
 10
-348.1945914782251
 20
586.4359984858879
 30
0.0
 11
-308.1945914782251
 21
586.4359984858879
 31
0.0
  0
LINE
  5
78A
330
18
100
AcDbEntity
  8
MADERA
 62
     7
100
AcDbLine
 10
-348.1945914782251
 20
636.4359984858879
 30
0.0
 11
-308.1945914782251
 21
636.4359984858879
 31
0.0
  0
CIRCLE
  5
78B
330
18
100
AcDbEntity
  8
MADERA
 62
     7
100
AcDbCircle
 10
-334.9067893477164
 20
618.1481963553788
 30
0.0
 40
1.492488280125144
  0
CIRCLE
  5
78C
330
18
100
AcDbEntity
  8
MADERA
 62
     7
100
AcDbCircle
 10
-321.4696158458979
 20
604.7259452756712
 30
0.0
 40
1.500189308692825
  0
CIRCLE
  5
78D
330
18
100
AcDbEntity
  8
MADERA
 62
     7
100
AcDbCircle
 10
-333.687064714965
 20
605.8976059361173
 30
0.0
 40
1.524876186102119
  0
CIRCLE
  5
78E
330
18
100
AcDbEntity
  8
MADERA
 62
     7
100
AcDbCircle
 10
-322.6791585849702
 20
616.9514313791431
 30
0.0
 40
1.500070993674854
  0
CIRCLE
  5
78F
330
18
100
AcDbEntity
  8
MADERA
 62
     7
100
AcDbCircle
 10
-328.1945914782251
 20
611.4359984858879
 30
0.0
 40
5.0
  0
CIRCLE
  5
790
330
18
100
AcDbEntity
  8
MADERA
 62
     7
100
AcDbCircle
 10
-328.1945914782251
 20
670.9037925284442
 30
0.0
 40
5.0
  0
CIRCLE
  5
791
330
18
100
AcDbEntity
  8
MADERA
 62
     7
100
AcDbCircle
 10
-322.6791585849702
 20
676.4192254216994
 30
0.0
 40
1.500070993674854
  0
CIRCLE
  5
792
330
18
100
AcDbEntity
  8
MADERA
 62
     7
100
AcDbCircle
 10
-333.687064714965
 20
665.3653999786736
 30
0.0
 40
1.524876186102119
  0
CIRCLE
  5
793
330
18
100
AcDbEntity
  8
MADERA
 62
     7
100
AcDbCircle
 10
-321.4696158458979
 20
664.1937393182275
 30
0.0
 40
1.500189308692825
  0
CIRCLE
  5
794
330
18
100
AcDbEntity
  8
MADERA
 62
     7
100
AcDbCircle
 10
-334.9067893477164
 20
677.6159903979351
 30
0.0
 40
1.492488280125144
  0
LINE
  5
795
330
18
100
AcDbEntity
  8
MADERA
 62
     7
100
AcDbLine
 10
-348.1945914782251
 20
695.9037925284442
 30
0.0
 11
-308.1945914782251
 21
695.9037925284442
 31
0.0
  0
LINE
  5
796
330
18
100
AcDbEntity
  8
MADERA
 62
     7
100
AcDbLine
 10
-348.1945914782251
 20
645.9037925284442
 30
0.0
 11
-308.1945914782251
 21
645.9037925284442
 31
0.0
  0
LINE
  5
797
330
18
100
AcDbEntity
  8
MADERA
 62
     7
100
AcDbLine
 10
-303.1945914782251
 20
650.9037925284442
 30
0.0
 11
-303.1945914782251
 21
690.9037925284442
 31
0.0
  0
LINE
  5
798
330
18
100
AcDbEntity
  8
MADERA
 62
     7
100
AcDbLine
 10
-353.1945914782251
 20
650.9037925284442
 30
0.0
 11
-353.1945914782251
 21
690.9037925284442
 31
0.0
  0
ARC
  5
799
330
18
100
AcDbEntity
  8
MADERA
 62
     7
100
AcDbCircle
 10
-308.1945914782251
 20
690.9037925284442
 30
0.0
 40
5.0
100
AcDbArc
 50
0.0
 51
90.0
  0
ARC
  5
79A
330
18
100
AcDbEntity
  8
MADERA
 62
     7
100
AcDbCircle
 10
-348.1945914782251
 20
690.9037925284442
 30
0.0
 40
5.0
100
AcDbArc
 50
90.0
 51
180.0
  0
ARC
  5
79B
330
18
100
AcDbEntity
  8
MADERA
 62
     7
100
AcDbCircle
 10
-348.1945914782251
 20
650.9037925284442
 30
0.0
 40
5.0
100
AcDbArc
 50
180.0
 51
270.0
  0
ARC
  5
79C
330
18
100
AcDbEntity
  8
MADERA
 62
     7
100
AcDbCircle
 10
-308.1945914782251
 20
650.9037925284442
 30
0.0
 40
5.0
100
AcDbArc
 50
270.0
 51
360.0
  0
ARC
  5
79D
330
18
100
AcDbEntity
  8
MADERA
 62
     7
100
AcDbCircle
 10
-239.2119503888595
 20
650.9037925284442
 30
0.0
 40
5.0
100
AcDbArc
 50
270.0
 51
360.0
  0
ARC
  5
79E
330
18
100
AcDbEntity
  8
MADERA
 62
     7
100
AcDbCircle
 10
-279.2119503888595
 20
650.9037925284442
 30
0.0
 40
5.0
100
AcDbArc
 50
180.0
 51
270.0
  0
ARC
  5
79F
330
18
100
AcDbEntity
  8
MADERA
 62
     7
100
AcDbCircle
 10
-279.2119503888595
 20
690.9037925284442
 30
0.0
 40
5.0
100
AcDbArc
 50
90.0
 51
180.0
  0
ARC
  5
7A0
330
18
100
AcDbEntity
  8
MADERA
 62
     7
100
AcDbCircle
 10
-239.2119503888595
 20
690.9037925284442
 30
0.0
 40
5.0
100
AcDbArc
 50
0.0
 51
90.0
  0
LINE
  5
7A1
330
18
100
AcDbEntity
  8
MADERA
 62
     7
100
AcDbLine
 10
-284.2119503888595
 20
650.9037925284442
 30
0.0
 11
-284.2119503888595
 21
690.9037925284442
 31
0.0
  0
LINE
  5
7A2
330
18
100
AcDbEntity
  8
MADERA
 62
     7
100
AcDbLine
 10
-234.2119503888595
 20
650.9037925284442
 30
0.0
 11
-234.2119503888595
 21
690.9037925284442
 31
0.0
  0
LINE
  5
7A3
330
18
100
AcDbEntity
  8
MADERA
 62
     7
100
AcDbLine
 10
-279.2119503888595
 20
645.9037925284442
 30
0.0
 11
-239.2119503888595
 21
645.9037925284442
 31
0.0
  0
LINE
  5
7A4
330
18
100
AcDbEntity
  8
MADERA
 62
     7
100
AcDbLine
 10
-279.2119503888595
 20
695.9037925284442
 30
0.0
 11
-239.2119503888595
 21
695.9037925284442
 31
0.0
  0
CIRCLE
  5
7A5
330
18
100
AcDbEntity
  8
MADERA
 62
     7
100
AcDbCircle
 10
-265.9241482583508
 20
677.6159903979351
 30
0.0
 40
1.492488280125144
  0
CIRCLE
  5
7A6
330
18
100
AcDbEntity
  8
MADERA
 62
     7
100
AcDbCircle
 10
-252.4869747565323
 20
664.1937393182275
 30
0.0
 40
1.500189308692825
  0
CIRCLE
  5
7A7
330
18
100
AcDbEntity
  8
MADERA
 62
     7
100
AcDbCircle
 10
-264.7044236255994
 20
665.3653999786736
 30
0.0
 40
1.524876186102119
  0
CIRCLE
  5
7A8
330
18
100
AcDbEntity
  8
MADERA
 62
     7
100
AcDbCircle
 10
-253.6965174956046
 20
676.4192254216994
 30
0.0
 40
1.500070993674854
  0
CIRCLE
  5
7A9
330
18
100
AcDbEntity
  8
MADERA
 62
     7
100
AcDbCircle
 10
-259.2119503888595
 20
670.9037925284442
 30
0.0
 40
5.0
  0
ARC
  5
7AA
330
18
100
AcDbEntity
  8
MADERA
 62
     7
100
AcDbCircle
 10
-176.1760887037505
 20
650.9037925284442
 30
0.0
 40
5.0
100
AcDbArc
 50
270.0
 51
360.0
  0
ARC
  5
7AB
330
18
100
AcDbEntity
  8
MADERA
 62
     7
100
AcDbCircle
 10
-216.1760887037505
 20
650.9037925284442
 30
0.0
 40
5.0
100
AcDbArc
 50
180.0
 51
270.0
  0
ARC
  5
7AC
330
18
100
AcDbEntity
  8
MADERA
 62
     7
100
AcDbCircle
 10
-216.1760887037505
 20
690.9037925284442
 30
0.0
 40
5.0
100
AcDbArc
 50
90.0
 51
180.0
  0
ARC
  5
7AD
330
18
100
AcDbEntity
  8
MADERA
 62
     7
100
AcDbCircle
 10
-176.1760887037505
 20
690.9037925284442
 30
0.0
 40
5.0
100
AcDbArc
 50
0.0
 51
90.0
  0
LINE
  5
7AE
330
18
100
AcDbEntity
  8
MADERA
 62
     7
100
AcDbLine
 10
-221.1760887037505
 20
650.9037925284442
 30
0.0
 11
-221.1760887037505
 21
690.9037925284442
 31
0.0
  0
LINE
  5
7AF
330
18
100
AcDbEntity
  8
MADERA
 62
     7
100
AcDbLine
 10
-171.1760887037505
 20
650.9037925284442
 30
0.0
 11
-171.1760887037505
 21
690.9037925284442
 31
0.0
  0
LINE
  5
7B0
330
18
100
AcDbEntity
  8
MADERA
 62
     7
100
AcDbLine
 10
-216.1760887037505
 20
645.9037925284442
 30
0.0
 11
-176.1760887037505
 21
645.9037925284442
 31
0.0
  0
LINE
  5
7B1
330
18
100
AcDbEntity
  8
MADERA
 62
     7
100
AcDbLine
 10
-216.1760887037505
 20
695.9037925284442
 30
0.0
 11
-176.1760887037505
 21
695.9037925284442
 31
0.0
  0
CIRCLE
  5
7B2
330
18
100
AcDbEntity
  8
MADERA
 62
     7
100
AcDbCircle
 10
-202.8882865732418
 20
677.6159903979351
 30
0.0
 40
1.492488280125144
  0
CIRCLE
  5
7B3
330
18
100
AcDbEntity
  8
MADERA
 62
     7
100
AcDbCircle
 10
-189.4511130714233
 20
664.1937393182275
 30
0.0
 40
1.500189308692825
  0
CIRCLE
  5
7B4
330
18
100
AcDbEntity
  8
MADERA
 62
     7
100
AcDbCircle
 10
-201.6685619404903
 20
665.3653999786736
 30
0.0
 40
1.524876186102119
  0
CIRCLE
  5
7B5
330
18
100
AcDbEntity
  8
MADERA
 62
     7
100
AcDbCircle
 10
-190.6606558104955
 20
676.4192254216994
 30
0.0
 40
1.500070993674854
  0
CIRCLE
  5
7B6
330
18
100
AcDbEntity
  8
MADERA
 62
     7
100
AcDbCircle
 10
-196.1760887037505
 20
670.9037925284442
 30
0.0
 40
5.0
  0
CIRCLE
  5
81F
330
18
100
AcDbEntity
  8
MADERA
 62
     7
100
AcDbCircle
 10
-328.1945914782251
 20
732.7502983327029
 30
0.0
 40
5.0
  0
CIRCLE
  5
820
330
18
100
AcDbEntity
  8
MADERA
 62
     7
100
AcDbCircle
 10
-322.6791585849702
 20
738.265731225958
 30
0.0
 40
1.500070993674854
  0
CIRCLE
  5
821
330
18
100
AcDbEntity
  8
MADERA
 62
     7
100
AcDbCircle
 10
-333.687064714965
 20
727.2119057829323
 30
0.0
 40
1.524876186102119
  0
CIRCLE
  5
822
330
18
100
AcDbEntity
  8
MADERA
 62
     7
100
AcDbCircle
 10
-321.4696158458979
 20
726.0402451224861
 30
0.0
 40
1.500189308692825
  0
CIRCLE
  5
823
330
18
100
AcDbEntity
  8
MADERA
 62
     7
100
AcDbCircle
 10
-334.9067893477164
 20
739.4624962021937
 30
0.0
 40
1.492488280125144
  0
LINE
  5
824
330
18
100
AcDbEntity
  8
MADERA
 62
     7
100
AcDbLine
 10
-348.1945914782251
 20
757.7502983327029
 30
0.0
 11
-308.1945914782251
 21
757.7502983327029
 31
0.0
  0
LINE
  5
825
330
18
100
AcDbEntity
  8
MADERA
 62
     7
100
AcDbLine
 10
-348.1945914782251
 20
707.7502983327029
 30
0.0
 11
-308.1945914782251
 21
707.7502983327029
 31
0.0
  0
LINE
  5
826
330
18
100
AcDbEntity
  8
MADERA
 62
     7
100
AcDbLine
 10
-303.1945914782251
 20
712.7502983327029
 30
0.0
 11
-303.1945914782251
 21
752.7502983327029
 31
0.0
  0
LINE
  5
827
330
18
100
AcDbEntity
  8
MADERA
 62
     7
100
AcDbLine
 10
-353.1945914782251
 20
712.7502983327029
 30
0.0
 11
-353.1945914782251
 21
752.7502983327029
 31
0.0
  0
ARC
  5
828
330
18
100
AcDbEntity
  8
MADERA
 62
     7
100
AcDbCircle
 10
-308.1945914782251
 20
752.7502983327029
 30
0.0
 40
5.0
100
AcDbArc
 50
0.0
 51
90.0
  0
ARC
  5
829
330
18
100
AcDbEntity
  8
MADERA
 62
     7
100
AcDbCircle
 10
-348.1945914782251
 20
752.7502983327029
 30
0.0
 40
5.0
100
AcDbArc
 50
90.0
 51
180.0
  0
ARC
  5
82A
330
18
100
AcDbEntity
  8
MADERA
 62
     7
100
AcDbCircle
 10
-348.1945914782251
 20
712.7502983327029
 30
0.0
 40
5.0
100
AcDbArc
 50
180.0
 51
270.0
  0
ARC
  5
82B
330
18
100
AcDbEntity
  8
MADERA
 62
     7
100
AcDbCircle
 10
-308.1945914782251
 20
712.7502983327029
 30
0.0
 40
5.0
100
AcDbArc
 50
270.0
 51
360.0
  0
ARC
  5
82C
330
18
100
AcDbEntity
  8
MADERA
 62
     7
100
AcDbCircle
 10
-239.2119503888595
 20
712.7502983327029
 30
0.0
 40
5.0
100
AcDbArc
 50
270.0
 51
360.0
  0
ARC
  5
82D
330
18
100
AcDbEntity
  8
MADERA
 62
     7
100
AcDbCircle
 10
-279.2119503888595
 20
712.7502983327029
 30
0.0
 40
5.0
100
AcDbArc
 50
180.0
 51
270.0
  0
ARC
  5
82E
330
18
100
AcDbEntity
  8
MADERA
 62
     7
100
AcDbCircle
 10
-279.2119503888595
 20
752.7502983327029
 30
0.0
 40
5.0
100
AcDbArc
 50
90.0
 51
180.0
  0
ARC
  5
82F
330
18
100
AcDbEntity
  8
MADERA
 62
     7
100
AcDbCircle
 10
-239.2119503888595
 20
752.7502983327029
 30
0.0
 40
5.0
100
AcDbArc
 50
0.0
 51
90.0
  0
LINE
  5
830
330
18
100
AcDbEntity
  8
MADERA
 62
     7
100
AcDbLine
 10
-284.2119503888595
 20
712.7502983327029
 30
0.0
 11
-284.2119503888595
 21
752.7502983327029
 31
0.0
  0
LINE
  5
831
330
18
100
AcDbEntity
  8
MADERA
 62
     7
100
AcDbLine
 10
-234.2119503888595
 20
712.7502983327029
 30
0.0
 11
-234.2119503888595
 21
752.7502983327029
 31
0.0
  0
LINE
  5
832
330
18
100
AcDbEntity
  8
MADERA
 62
     7
100
AcDbLine
 10
-279.2119503888595
 20
707.7502983327029
 30
0.0
 11
-239.2119503888595
 21
707.7502983327029
 31
0.0
  0
LINE
  5
833
330
18
100
AcDbEntity
  8
MADERA
 62
     7
100
AcDbLine
 10
-279.2119503888595
 20
757.7502983327029
 30
0.0
 11
-239.2119503888595
 21
757.7502983327029
 31
0.0
  0
CIRCLE
  5
834
330
18
100
AcDbEntity
  8
MADERA
 62
     7
100
AcDbCircle
 10
-265.9241482583508
 20
739.4624962021937
 30
0.0
 40
1.492488280125144
  0
CIRCLE
  5
835
330
18
100
AcDbEntity
  8
MADERA
 62
     7
100
AcDbCircle
 10
-252.4869747565323
 20
726.0402451224861
 30
0.0
 40
1.500189308692825
  0
CIRCLE
  5
836
330
18
100
AcDbEntity
  8
MADERA
 62
     7
100
AcDbCircle
 10
-264.7044236255994
 20
727.2119057829323
 30
0.0
 40
1.524876186102119
  0
CIRCLE
  5
837
330
18
100
AcDbEntity
  8
MADERA
 62
     7
100
AcDbCircle
 10
-253.6965174956046
 20
738.265731225958
 30
0.0
 40
1.500070993674854
  0
CIRCLE
  5
838
330
18
100
AcDbEntity
  8
MADERA
 62
     7
100
AcDbCircle
 10
-259.2119503888595
 20
732.7502983327029
 30
0.0
 40
5.0
  0
ARC
  5
839
330
18
100
AcDbEntity
  8
MADERA
 62
     7
100
AcDbCircle
 10
-176.1760887037505
 20
712.7502983327029
 30
0.0
 40
5.0
100
AcDbArc
 50
270.0
 51
360.0
  0
ARC
  5
83A
330
18
100
AcDbEntity
  8
MADERA
 62
     7
100
AcDbCircle
 10
-216.1760887037505
 20
712.7502983327029
 30
0.0
 40
5.0
100
AcDbArc
 50
180.0
 51
270.0
  0
ARC
  5
83B
330
18
100
AcDbEntity
  8
MADERA
 62
     7
100
AcDbCircle
 10
-216.1760887037505
 20
752.7502983327029
 30
0.0
 40
5.0
100
AcDbArc
 50
90.0
 51
180.0
  0
ARC
  5
83C
330
18
100
AcDbEntity
  8
MADERA
 62
     7
100
AcDbCircle
 10
-176.1760887037505
 20
752.7502983327029
 30
0.0
 40
5.0
100
AcDbArc
 50
0.0
 51
90.0
  0
LINE
  5
83D
330
18
100
AcDbEntity
  8
MADERA
 62
     7
100
AcDbLine
 10
-221.1760887037505
 20
712.7502983327029
 30
0.0
 11
-221.1760887037505
 21
752.7502983327029
 31
0.0
  0
LINE
  5
83E
330
18
100
AcDbEntity
  8
MADERA
 62
     7
100
AcDbLine
 10
-171.1760887037505
 20
712.7502983327029
 30
0.0
 11
-171.1760887037505
 21
752.7502983327029
 31
0.0
  0
LINE
  5
83F
330
18
100
AcDbEntity
  8
MADERA
 62
     7
100
AcDbLine
 10
-216.1760887037505
 20
707.7502983327029
 30
0.0
 11
-176.1760887037505
 21
707.7502983327029
 31
0.0
  0
LINE
  5
840
330
18
100
AcDbEntity
  8
MADERA
 62
     7
100
AcDbLine
 10
-216.1760887037505
 20
757.7502983327029
 30
0.0
 11
-176.1760887037505
 21
757.7502983327029
 31
0.0
  0
CIRCLE
  5
841
330
18
100
AcDbEntity
  8
MADERA
 62
     7
100
AcDbCircle
 10
-202.8882865732418
 20
739.4624962021937
 30
0.0
 40
1.492488280125144
  0
CIRCLE
  5
842
330
18
100
AcDbEntity
  8
MADERA
 62
     7
100
AcDbCircle
 10
-189.4511130714233
 20
726.0402451224861
 30
0.0
 40
1.500189308692825
  0
CIRCLE
  5
843
330
18
100
AcDbEntity
  8
MADERA
 62
     7
100
AcDbCircle
 10
-201.6685619404903
 20
727.2119057829323
 30
0.0
 40
1.524876186102119
  0
CIRCLE
  5
844
330
18
100
AcDbEntity
  8
MADERA
 62
     7
100
AcDbCircle
 10
-190.6606558104955
 20
738.265731225958
 30
0.0
 40
1.500070993674854
  0
CIRCLE
  5
845
330
18
100
AcDbEntity
  8
MADERA
 62
     7
100
AcDbCircle
 10
-196.1760887037505
 20
732.7502983327029
 30
0.0
 40
5.0
  0
CIRCLE
  5
8AE
330
18
100
AcDbEntity
  8
MADERA
 62
     7
100
AcDbCircle
 10
-328.1945914782251
 20
798.1648717795147
 30
0.0
 40
5.0
  0
CIRCLE
  5
8AF
330
18
100
AcDbEntity
  8
MADERA
 62
     7
100
AcDbCircle
 10
-322.6791585849702
 20
803.6803046727698
 30
0.0
 40
1.500070993674854
  0
CIRCLE
  5
8B0
330
18
100
AcDbEntity
  8
MADERA
 62
     7
100
AcDbCircle
 10
-333.687064714965
 20
792.6264792297441
 30
0.0
 40
1.524876186102119
  0
CIRCLE
  5
8B1
330
18
100
AcDbEntity
  8
MADERA
 62
     7
100
AcDbCircle
 10
-321.4696158458979
 20
791.4548185692979
 30
0.0
 40
1.500189308692825
  0
CIRCLE
  5
8B2
330
18
100
AcDbEntity
  8
MADERA
 62
     7
100
AcDbCircle
 10
-334.9067893477164
 20
804.8770696490055
 30
0.0
 40
1.492488280125144
  0
LINE
  5
8B3
330
18
100
AcDbEntity
  8
MADERA
 62
     7
100
AcDbLine
 10
-348.1945914782251
 20
823.1648717795147
 30
0.0
 11
-308.1945914782251
 21
823.1648717795147
 31
0.0
  0
LINE
  5
8B4
330
18
100
AcDbEntity
  8
MADERA
 62
     7
100
AcDbLine
 10
-348.1945914782251
 20
773.1648717795147
 30
0.0
 11
-308.1945914782251
 21
773.1648717795147
 31
0.0
  0
LINE
  5
8B5
330
18
100
AcDbEntity
  8
MADERA
 62
     7
100
AcDbLine
 10
-303.1945914782251
 20
778.1648717795147
 30
0.0
 11
-303.1945914782251
 21
818.1648717795147
 31
0.0
  0
LINE
  5
8B6
330
18
100
AcDbEntity
  8
MADERA
 62
     7
100
AcDbLine
 10
-353.1945914782251
 20
778.1648717795147
 30
0.0
 11
-353.1945914782251
 21
818.1648717795147
 31
0.0
  0
ARC
  5
8B7
330
18
100
AcDbEntity
  8
MADERA
 62
     7
100
AcDbCircle
 10
-308.1945914782251
 20
818.1648717795147
 30
0.0
 40
5.0
100
AcDbArc
 50
0.0
 51
90.0
  0
ARC
  5
8B8
330
18
100
AcDbEntity
  8
MADERA
 62
     7
100
AcDbCircle
 10
-348.1945914782251
 20
818.1648717795147
 30
0.0
 40
5.0
100
AcDbArc
 50
90.0
 51
180.0
  0
ARC
  5
8B9
330
18
100
AcDbEntity
  8
MADERA
 62
     7
100
AcDbCircle
 10
-348.1945914782251
 20
778.1648717795147
 30
0.0
 40
5.0
100
AcDbArc
 50
180.0
 51
270.0
  0
ARC
  5
8BA
330
18
100
AcDbEntity
  8
MADERA
 62
     7
100
AcDbCircle
 10
-308.1945914782251
 20
778.1648717795147
 30
0.0
 40
5.0
100
AcDbArc
 50
270.0
 51
360.0
  0
ARC
  5
8BB
330
18
100
AcDbEntity
  8
MADERA
 62
     7
100
AcDbCircle
 10
-239.2119503888595
 20
778.1648717795147
 30
0.0
 40
5.0
100
AcDbArc
 50
270.0
 51
360.0
  0
ARC
  5
8BC
330
18
100
AcDbEntity
  8
MADERA
 62
     7
100
AcDbCircle
 10
-279.2119503888595
 20
778.1648717795147
 30
0.0
 40
5.0
100
AcDbArc
 50
180.0
 51
270.0
  0
ARC
  5
8BD
330
18
100
AcDbEntity
  8
MADERA
 62
     7
100
AcDbCircle
 10
-279.2119503888595
 20
818.1648717795147
 30
0.0
 40
5.0
100
AcDbArc
 50
90.0
 51
180.0
  0
ARC
  5
8BE
330
18
100
AcDbEntity
  8
MADERA
 62
     7
100
AcDbCircle
 10
-239.2119503888595
 20
818.1648717795147
 30
0.0
 40
5.0
100
AcDbArc
 50
0.0
 51
90.0
  0
LINE
  5
8BF
330
18
100
AcDbEntity
  8
MADERA
 62
     7
100
AcDbLine
 10
-284.2119503888595
 20
778.1648717795147
 30
0.0
 11
-284.2119503888595
 21
818.1648717795147
 31
0.0
  0
LINE
  5
8C0
330
18
100
AcDbEntity
  8
MADERA
 62
     7
100
AcDbLine
 10
-234.2119503888595
 20
778.1648717795147
 30
0.0
 11
-234.2119503888595
 21
818.1648717795147
 31
0.0
  0
LINE
  5
8C1
330
18
100
AcDbEntity
  8
MADERA
 62
     7
100
AcDbLine
 10
-279.2119503888595
 20
773.1648717795147
 30
0.0
 11
-239.2119503888595
 21
773.1648717795147
 31
0.0
  0
LINE
  5
8C2
330
18
100
AcDbEntity
  8
MADERA
 62
     7
100
AcDbLine
 10
-279.2119503888595
 20
823.1648717795147
 30
0.0
 11
-239.2119503888595
 21
823.1648717795147
 31
0.0
  0
CIRCLE
  5
8C3
330
18
100
AcDbEntity
  8
MADERA
 62
     7
100
AcDbCircle
 10
-265.9241482583508
 20
804.8770696490055
 30
0.0
 40
1.492488280125144
  0
CIRCLE
  5
8C4
330
18
100
AcDbEntity
  8
MADERA
 62
     7
100
AcDbCircle
 10
-252.4869747565323
 20
791.4548185692979
 30
0.0
 40
1.500189308692825
  0
CIRCLE
  5
8C5
330
18
100
AcDbEntity
  8
MADERA
 62
     7
100
AcDbCircle
 10
-264.7044236255994
 20
792.6264792297441
 30
0.0
 40
1.524876186102119
  0
CIRCLE
  5
8C6
330
18
100
AcDbEntity
  8
MADERA
 62
     7
100
AcDbCircle
 10
-253.6965174956046
 20
803.6803046727698
 30
0.0
 40
1.500070993674854
  0
CIRCLE
  5
8C7
330
18
100
AcDbEntity
  8
MADERA
 62
     7
100
AcDbCircle
 10
-259.2119503888595
 20
798.1648717795147
 30
0.0
 40
5.0
  0
ARC
  5
8C8
330
18
100
AcDbEntity
  8
MADERA
 62
     7
100
AcDbCircle
 10
-176.1760887037505
 20
778.1648717795147
 30
0.0
 40
5.0
100
AcDbArc
 50
270.0
 51
360.0
  0
ARC
  5
8C9
330
18
100
AcDbEntity
  8
MADERA
 62
     7
100
AcDbCircle
 10
-216.1760887037505
 20
778.1648717795147
 30
0.0
 40
5.0
100
AcDbArc
 50
180.0
 51
270.0
  0
ARC
  5
8CA
330
18
100
AcDbEntity
  8
MADERA
 62
     7
100
AcDbCircle
 10
-216.1760887037505
 20
818.1648717795147
 30
0.0
 40
5.0
100
AcDbArc
 50
90.0
 51
180.0
  0
ARC
  5
8CB
330
18
100
AcDbEntity
  8
MADERA
 62
     7
100
AcDbCircle
 10
-176.1760887037505
 20
818.1648717795147
 30
0.0
 40
5.0
100
AcDbArc
 50
0.0
 51
90.0
  0
LINE
  5
8CC
330
18
100
AcDbEntity
  8
MADERA
 62
     7
100
AcDbLine
 10
-221.1760887037505
 20
778.1648717795147
 30
0.0
 11
-221.1760887037505
 21
818.1648717795147
 31
0.0
  0
LINE
  5
8CD
330
18
100
AcDbEntity
  8
MADERA
 62
     7
100
AcDbLine
 10
-171.1760887037505
 20
778.1648717795147
 30
0.0
 11
-171.1760887037505
 21
818.1648717795147
 31
0.0
  0
LINE
  5
8CE
330
18
100
AcDbEntity
  8
MADERA
 62
     7
100
AcDbLine
 10
-216.1760887037505
 20
773.1648717795147
 30
0.0
 11
-176.1760887037505
 21
773.1648717795147
 31
0.0
  0
LINE
  5
8CF
330
18
100
AcDbEntity
  8
MADERA
 62
     7
100
AcDbLine
 10
-216.1760887037505
 20
823.1648717795147
 30
0.0
 11
-176.1760887037505
 21
823.1648717795147
 31
0.0
  0
CIRCLE
  5
8D0
330
18
100
AcDbEntity
  8
MADERA
 62
     7
100
AcDbCircle
 10
-202.8882865732418
 20
804.8770696490055
 30
0.0
 40
1.492488280125144
  0
CIRCLE
  5
8D1
330
18
100
AcDbEntity
  8
MADERA
 62
     7
100
AcDbCircle
 10
-189.4511130714233
 20
791.4548185692979
 30
0.0
 40
1.500189308692825
  0
CIRCLE
  5
8D2
330
18
100
AcDbEntity
  8
MADERA
 62
     7
100
AcDbCircle
 10
-201.6685619404903
 20
792.6264792297441
 30
0.0
 40
1.524876186102119
  0
CIRCLE
  5
8D3
330
18
100
AcDbEntity
  8
MADERA
 62
     7
100
AcDbCircle
 10
-190.6606558104955
 20
803.6803046727698
 30
0.0
 40
1.500070993674854
  0
CIRCLE
  5
8D4
330
18
100
AcDbEntity
  8
MADERA
 62
     7
100
AcDbCircle
 10
-196.1760887037505
 20
798.1648717795147
 30
0.0
 40
5.0
  0
CIRCLE
  5
93D
330
18
100
AcDbEntity
  8
MADERA
 62
     7
100
AcDbCircle
 10
-328.1945914782251
 20
861.2007334646244
 30
0.0
 40
5.0
  0
CIRCLE
  5
93E
330
18
100
AcDbEntity
  8
MADERA
 62
     7
100
AcDbCircle
 10
-322.6791585849702
 20
866.7161663578795
 30
0.0
 40
1.500070993674854
  0
CIRCLE
  5
93F
330
18
100
AcDbEntity
  8
MADERA
 62
     7
100
AcDbCircle
 10
-333.687064714965
 20
855.6623409148538
 30
0.0
 40
1.524876186102119
  0
CIRCLE
  5
940
330
18
100
AcDbEntity
  8
MADERA
 62
     7
100
AcDbCircle
 10
-321.4696158458979
 20
854.4906802544076
 30
0.0
 40
1.500189308692825
  0
CIRCLE
  5
941
330
18
100
AcDbEntity
  8
MADERA
 62
     7
100
AcDbCircle
 10
-334.9067893477164
 20
867.9129313341152
 30
0.0
 40
1.492488280125144
  0
LINE
  5
942
330
18
100
AcDbEntity
  8
MADERA
 62
     7
100
AcDbLine
 10
-348.1945914782251
 20
886.2007334646244
 30
0.0
 11
-308.1945914782251
 21
886.2007334646244
 31
0.0
  0
LINE
  5
943
330
18
100
AcDbEntity
  8
MADERA
 62
     7
100
AcDbLine
 10
-348.1945914782251
 20
836.2007334646244
 30
0.0
 11
-308.1945914782251
 21
836.2007334646244
 31
0.0
  0
LINE
  5
944
330
18
100
AcDbEntity
  8
MADERA
 62
     7
100
AcDbLine
 10
-303.1945914782251
 20
841.2007334646244
 30
0.0
 11
-303.1945914782251
 21
881.2007334646244
 31
0.0
  0
LINE
  5
945
330
18
100
AcDbEntity
  8
MADERA
 62
     7
100
AcDbLine
 10
-353.1945914782251
 20
841.2007334646244
 30
0.0
 11
-353.1945914782251
 21
881.2007334646244
 31
0.0
  0
ARC
  5
946
330
18
100
AcDbEntity
  8
MADERA
 62
     7
100
AcDbCircle
 10
-308.1945914782251
 20
881.2007334646244
 30
0.0
 40
5.0
100
AcDbArc
 50
0.0
 51
90.0
  0
ARC
  5
947
330
18
100
AcDbEntity
  8
MADERA
 62
     7
100
AcDbCircle
 10
-348.1945914782251
 20
881.2007334646244
 30
0.0
 40
5.0
100
AcDbArc
 50
90.0
 51
180.0
  0
ARC
  5
948
330
18
100
AcDbEntity
  8
MADERA
 62
     7
100
AcDbCircle
 10
-348.1945914782251
 20
841.2007334646244
 30
0.0
 40
5.0
100
AcDbArc
 50
180.0
 51
270.0
  0
ARC
  5
949
330
18
100
AcDbEntity
  8
MADERA
 62
     7
100
AcDbCircle
 10
-308.1945914782251
 20
841.2007334646244
 30
0.0
 40
5.0
100
AcDbArc
 50
270.0
 51
360.0
  0
ARC
  5
94A
330
18
100
AcDbEntity
  8
MADERA
 62
     7
100
AcDbCircle
 10
-239.2119503888595
 20
841.2007334646244
 30
0.0
 40
5.0
100
AcDbArc
 50
270.0
 51
360.0
  0
ARC
  5
94B
330
18
100
AcDbEntity
  8
MADERA
 62
     7
100
AcDbCircle
 10
-279.2119503888595
 20
841.2007334646244
 30
0.0
 40
5.0
100
AcDbArc
 50
180.0
 51
270.0
  0
ARC
  5
94C
330
18
100
AcDbEntity
  8
MADERA
 62
     7
100
AcDbCircle
 10
-279.2119503888595
 20
881.2007334646244
 30
0.0
 40
5.0
100
AcDbArc
 50
90.0
 51
180.0
  0
ARC
  5
94D
330
18
100
AcDbEntity
  8
MADERA
 62
     7
100
AcDbCircle
 10
-239.2119503888595
 20
881.2007334646244
 30
0.0
 40
5.0
100
AcDbArc
 50
0.0
 51
90.0
  0
LINE
  5
94E
330
18
100
AcDbEntity
  8
MADERA
 62
     7
100
AcDbLine
 10
-284.2119503888595
 20
841.2007334646244
 30
0.0
 11
-284.2119503888595
 21
881.2007334646244
 31
0.0
  0
LINE
  5
94F
330
18
100
AcDbEntity
  8
MADERA
 62
     7
100
AcDbLine
 10
-234.2119503888595
 20
841.2007334646244
 30
0.0
 11
-234.2119503888595
 21
881.2007334646244
 31
0.0
  0
LINE
  5
950
330
18
100
AcDbEntity
  8
MADERA
 62
     7
100
AcDbLine
 10
-279.2119503888595
 20
836.2007334646244
 30
0.0
 11
-239.2119503888595
 21
836.2007334646244
 31
0.0
  0
LINE
  5
951
330
18
100
AcDbEntity
  8
MADERA
 62
     7
100
AcDbLine
 10
-279.2119503888595
 20
886.2007334646244
 30
0.0
 11
-239.2119503888595
 21
886.2007334646244
 31
0.0
  0
CIRCLE
  5
952
330
18
100
AcDbEntity
  8
MADERA
 62
     7
100
AcDbCircle
 10
-265.9241482583508
 20
867.9129313341152
 30
0.0
 40
1.492488280125144
  0
CIRCLE
  5
953
330
18
100
AcDbEntity
  8
MADERA
 62
     7
100
AcDbCircle
 10
-252.4869747565323
 20
854.4906802544076
 30
0.0
 40
1.500189308692825
  0
CIRCLE
  5
954
330
18
100
AcDbEntity
  8
MADERA
 62
     7
100
AcDbCircle
 10
-264.7044236255994
 20
855.6623409148538
 30
0.0
 40
1.524876186102119
  0
CIRCLE
  5
955
330
18
100
AcDbEntity
  8
MADERA
 62
     7
100
AcDbCircle
 10
-253.6965174956046
 20
866.7161663578795
 30
0.0
 40
1.500070993674854
  0
CIRCLE
  5
956
330
18
100
AcDbEntity
  8
MADERA
 62
     7
100
AcDbCircle
 10
-259.2119503888595
 20
861.2007334646244
 30
0.0
 40
5.0
  0
ARC
  5
957
330
18
100
AcDbEntity
  8
MADERA
 62
     7
100
AcDbCircle
 10
-176.1760887037505
 20
841.2007334646244
 30
0.0
 40
5.0
100
AcDbArc
 50
270.0
 51
360.0
  0
ARC
  5
958
330
18
100
AcDbEntity
  8
MADERA
 62
     7
100
AcDbCircle
 10
-216.1760887037505
 20
841.2007334646244
 30
0.0
 40
5.0
100
AcDbArc
 50
180.0
 51
270.0
  0
ARC
  5
959
330
18
100
AcDbEntity
  8
MADERA
 62
     7
100
AcDbCircle
 10
-216.1760887037505
 20
881.2007334646244
 30
0.0
 40
5.0
100
AcDbArc
 50
90.0
 51
180.0
  0
ARC
  5
95A
330
18
100
AcDbEntity
  8
MADERA
 62
     7
100
AcDbCircle
 10
-176.1760887037505
 20
881.2007334646244
 30
0.0
 40
5.0
100
AcDbArc
 50
0.0
 51
90.0
  0
LINE
  5
95B
330
18
100
AcDbEntity
  8
MADERA
 62
     7
100
AcDbLine
 10
-221.1760887037505
 20
841.2007334646244
 30
0.0
 11
-221.1760887037505
 21
881.2007334646244
 31
0.0
  0
LINE
  5
95C
330
18
100
AcDbEntity
  8
MADERA
 62
     7
100
AcDbLine
 10
-171.1760887037505
 20
841.2007334646244
 30
0.0
 11
-171.1760887037505
 21
881.2007334646244
 31
0.0
  0
LINE
  5
95D
330
18
100
AcDbEntity
  8
MADERA
 62
     7
100
AcDbLine
 10
-216.1760887037505
 20
836.2007334646244
 30
0.0
 11
-176.1760887037505
 21
836.2007334646244
 31
0.0
  0
LINE
  5
95E
330
18
100
AcDbEntity
  8
MADERA
 62
     7
100
AcDbLine
 10
-216.1760887037505
 20
886.2007334646244
 30
0.0
 11
-176.1760887037505
 21
886.2007334646244
 31
0.0
  0
CIRCLE
  5
95F
330
18
100
AcDbEntity
  8
MADERA
 62
     7
100
AcDbCircle
 10
-202.8882865732418
 20
867.9129313341152
 30
0.0
 40
1.492488280125144
  0
CIRCLE
  5
960
330
18
100
AcDbEntity
  8
MADERA
 62
     7
100
AcDbCircle
 10
-189.4511130714233
 20
854.4906802544076
 30
0.0
 40
1.500189308692825
  0
CIRCLE
  5
961
330
18
100
AcDbEntity
  8
MADERA
 62
     7
100
AcDbCircle
 10
-201.6685619404903
 20
855.6623409148538
 30
0.0
 40
1.524876186102119
  0
CIRCLE
  5
962
330
18
100
AcDbEntity
  8
MADERA
 62
     7
100
AcDbCircle
 10
-190.6606558104955
 20
866.7161663578795
 30
0.0
 40
1.500070993674854
  0
CIRCLE
  5
963
330
18
100
AcDbEntity
  8
MADERA
 62
     7
100
AcDbCircle
 10
-196.1760887037505
 20
861.2007334646244
 30
0.0
 40
5.0
  0
CIRCLE
  5
9CC
330
18
100
AcDbEntity
  8
MADERA
 62
     7
100
AcDbCircle
 10
-328.1945914782251
 20
925.4259510305851
 30
0.0
 40
5.0
  0
CIRCLE
  5
9CD
330
18
100
AcDbEntity
  8
MADERA
 62
     7
100
AcDbCircle
 10
-322.6791585849702
 20
930.9413839238402
 30
0.0
 40
1.500070993674854
  0
CIRCLE
  5
9CE
330
18
100
AcDbEntity
  8
MADERA
 62
     7
100
AcDbCircle
 10
-333.687064714965
 20
919.8875584808145
 30
0.0
 40
1.524876186102119
  0
CIRCLE
  5
9CF
330
18
100
AcDbEntity
  8
MADERA
 62
     7
100
AcDbCircle
 10
-321.4696158458979
 20
918.7158978203684
 30
0.0
 40
1.500189308692825
  0
CIRCLE
  5
9D0
330
18
100
AcDbEntity
  8
MADERA
 62
     7
100
AcDbCircle
 10
-334.9067893477164
 20
932.138148900076
 30
0.0
 40
1.492488280125144
  0
LINE
  5
9D1
330
18
100
AcDbEntity
  8
MADERA
 62
     7
100
AcDbLine
 10
-348.1945914782251
 20
950.4259510305851
 30
0.0
 11
-308.1945914782251
 21
950.4259510305851
 31
0.0
  0
LINE
  5
9D2
330
18
100
AcDbEntity
  8
MADERA
 62
     7
100
AcDbLine
 10
-348.1945914782251
 20
900.4259510305851
 30
0.0
 11
-308.1945914782251
 21
900.4259510305851
 31
0.0
  0
LINE
  5
9D3
330
18
100
AcDbEntity
  8
MADERA
 62
     7
100
AcDbLine
 10
-303.1945914782251
 20
905.4259510305851
 30
0.0
 11
-303.1945914782251
 21
945.4259510305851
 31
0.0
  0
LINE
  5
9D4
330
18
100
AcDbEntity
  8
MADERA
 62
     7
100
AcDbLine
 10
-353.1945914782251
 20
905.4259510305851
 30
0.0
 11
-353.1945914782251
 21
945.4259510305851
 31
0.0
  0
ARC
  5
9D5
330
18
100
AcDbEntity
  8
MADERA
 62
     7
100
AcDbCircle
 10
-308.1945914782251
 20
945.4259510305851
 30
0.0
 40
5.0
100
AcDbArc
 50
0.0
 51
90.0
  0
ARC
  5
9D6
330
18
100
AcDbEntity
  8
MADERA
 62
     7
100
AcDbCircle
 10
-348.1945914782251
 20
945.4259510305851
 30
0.0
 40
5.0
100
AcDbArc
 50
90.0
 51
180.0
  0
ARC
  5
9D7
330
18
100
AcDbEntity
  8
MADERA
 62
     7
100
AcDbCircle
 10
-348.1945914782251
 20
905.4259510305851
 30
0.0
 40
5.0
100
AcDbArc
 50
180.0
 51
270.0
  0
ARC
  5
9D8
330
18
100
AcDbEntity
  8
MADERA
 62
     7
100
AcDbCircle
 10
-308.1945914782251
 20
905.4259510305851
 30
0.0
 40
5.0
100
AcDbArc
 50
270.0
 51
360.0
  0
ARC
  5
9D9
330
18
100
AcDbEntity
  8
MADERA
 62
     7
100
AcDbCircle
 10
-239.2119503888595
 20
905.4259510305851
 30
0.0
 40
5.0
100
AcDbArc
 50
270.0
 51
360.0
  0
ARC
  5
9DA
330
18
100
AcDbEntity
  8
MADERA
 62
     7
100
AcDbCircle
 10
-279.2119503888595
 20
905.4259510305851
 30
0.0
 40
5.0
100
AcDbArc
 50
180.0
 51
270.0
  0
ARC
  5
9DB
330
18
100
AcDbEntity
  8
MADERA
 62
     7
100
AcDbCircle
 10
-279.2119503888595
 20
945.4259510305851
 30
0.0
 40
5.0
100
AcDbArc
 50
90.0
 51
180.0
  0
ARC
  5
9DC
330
18
100
AcDbEntity
  8
MADERA
 62
     7
100
AcDbCircle
 10
-239.2119503888595
 20
945.4259510305851
 30
0.0
 40
5.0
100
AcDbArc
 50
0.0
 51
90.0
  0
LINE
  5
9DD
330
18
100
AcDbEntity
  8
MADERA
 62
     7
100
AcDbLine
 10
-284.2119503888595
 20
905.4259510305851
 30
0.0
 11
-284.2119503888595
 21
945.4259510305851
 31
0.0
  0
LINE
  5
9DE
330
18
100
AcDbEntity
  8
MADERA
 62
     7
100
AcDbLine
 10
-234.2119503888595
 20
905.4259510305851
 30
0.0
 11
-234.2119503888595
 21
945.4259510305851
 31
0.0
  0
LINE
  5
9DF
330
18
100
AcDbEntity
  8
MADERA
 62
     7
100
AcDbLine
 10
-279.2119503888595
 20
900.4259510305851
 30
0.0
 11
-239.2119503888595
 21
900.4259510305851
 31
0.0
  0
LINE
  5
9E0
330
18
100
AcDbEntity
  8
MADERA
 62
     7
100
AcDbLine
 10
-279.2119503888595
 20
950.4259510305851
 30
0.0
 11
-239.2119503888595
 21
950.4259510305851
 31
0.0
  0
CIRCLE
  5
9E1
330
18
100
AcDbEntity
  8
MADERA
 62
     7
100
AcDbCircle
 10
-265.9241482583508
 20
932.138148900076
 30
0.0
 40
1.492488280125144
  0
CIRCLE
  5
9E2
330
18
100
AcDbEntity
  8
MADERA
 62
     7
100
AcDbCircle
 10
-252.4869747565323
 20
918.7158978203684
 30
0.0
 40
1.500189308692825
  0
CIRCLE
  5
9E3
330
18
100
AcDbEntity
  8
MADERA
 62
     7
100
AcDbCircle
 10
-264.7044236255994
 20
919.8875584808145
 30
0.0
 40
1.524876186102119
  0
CIRCLE
  5
9E4
330
18
100
AcDbEntity
  8
MADERA
 62
     7
100
AcDbCircle
 10
-253.6965174956046
 20
930.9413839238402
 30
0.0
 40
1.500070993674854
  0
CIRCLE
  5
9E5
330
18
100
AcDbEntity
  8
MADERA
 62
     7
100
AcDbCircle
 10
-259.2119503888595
 20
925.4259510305851
 30
0.0
 40
5.0
  0
ARC
  5
9E6
330
18
100
AcDbEntity
  8
MADERA
 62
     7
100
AcDbCircle
 10
-176.1760887037505
 20
905.4259510305851
 30
0.0
 40
5.0
100
AcDbArc
 50
270.0
 51
360.0
  0
ARC
  5
9E7
330
18
100
AcDbEntity
  8
MADERA
 62
     7
100
AcDbCircle
 10
-216.1760887037505
 20
905.4259510305851
 30
0.0
 40
5.0
100
AcDbArc
 50
180.0
 51
270.0
  0
ARC
  5
9E8
330
18
100
AcDbEntity
  8
MADERA
 62
     7
100
AcDbCircle
 10
-216.1760887037505
 20
945.4259510305851
 30
0.0
 40
5.0
100
AcDbArc
 50
90.0
 51
180.0
  0
ARC
  5
9E9
330
18
100
AcDbEntity
  8
MADERA
 62
     7
100
AcDbCircle
 10
-176.1760887037505
 20
945.4259510305851
 30
0.0
 40
5.0
100
AcDbArc
 50
0.0
 51
90.0
  0
LINE
  5
9EA
330
18
100
AcDbEntity
  8
MADERA
 62
     7
100
AcDbLine
 10
-221.1760887037505
 20
905.4259510305851
 30
0.0
 11
-221.1760887037505
 21
945.4259510305851
 31
0.0
  0
LINE
  5
9EB
330
18
100
AcDbEntity
  8
MADERA
 62
     7
100
AcDbLine
 10
-171.1760887037505
 20
905.4259510305851
 30
0.0
 11
-171.1760887037505
 21
945.4259510305851
 31
0.0
  0
LINE
  5
9EC
330
18
100
AcDbEntity
  8
MADERA
 62
     7
100
AcDbLine
 10
-216.1760887037505
 20
900.4259510305851
 30
0.0
 11
-176.1760887037505
 21
900.4259510305851
 31
0.0
  0
LINE
  5
9ED
330
18
100
AcDbEntity
  8
MADERA
 62
     7
100
AcDbLine
 10
-216.1760887037505
 20
950.4259510305851
 30
0.0
 11
-176.1760887037505
 21
950.4259510305851
 31
0.0
  0
CIRCLE
  5
9EE
330
18
100
AcDbEntity
  8
MADERA
 62
     7
100
AcDbCircle
 10
-202.8882865732418
 20
932.138148900076
 30
0.0
 40
1.492488280125144
  0
CIRCLE
  5
9EF
330
18
100
AcDbEntity
  8
MADERA
 62
     7
100
AcDbCircle
 10
-189.4511130714233
 20
918.7158978203684
 30
0.0
 40
1.500189308692825
  0
CIRCLE
  5
9F0
330
18
100
AcDbEntity
  8
MADERA
 62
     7
100
AcDbCircle
 10
-201.6685619404903
 20
919.8875584808145
 30
0.0
 40
1.524876186102119
  0
CIRCLE
  5
9F1
330
18
100
AcDbEntity
  8
MADERA
 62
     7
100
AcDbCircle
 10
-190.6606558104955
 20
930.9413839238402
 30
0.0
 40
1.500070993674854
  0
CIRCLE
  5
9F2
330
18
100
AcDbEntity
  8
MADERA
 62
     7
100
AcDbCircle
 10
-196.1760887037505
 20
925.4259510305851
 30
0.0
 40
5.0
  0
CIRCLE
  5
AC3
330
18
100
AcDbEntity
  8
MADERA
 62
     7
100
AcDbCircle
 10
-196.1760887037505
 20
988.4618127156948
 30
0.0
 40
5.0
  0
CIRCLE
  5
AC4
330
18
100
AcDbEntity
  8
MADERA
 62
     7
100
AcDbCircle
 10
-190.6606558104955
 20
993.9772456089499
 30
0.0
 40
1.500070993674854
  0
CIRCLE
  5
AC5
330
18
100
AcDbEntity
  8
MADERA
 62
     7
100
AcDbCircle
 10
-201.6685619404903
 20
982.9234201659242
 30
0.0
 40
1.524876186102119
  0
CIRCLE
  5
AC6
330
18
100
AcDbEntity
  8
MADERA
 62
     7
100
AcDbCircle
 10
-189.4511130714233
 20
981.751759505478
 30
0.0
 40
1.500189308692825
  0
CIRCLE
  5
AC7
330
18
100
AcDbEntity
  8
MADERA
 62
     7
100
AcDbCircle
 10
-202.8882865732418
 20
995.1740105851857
 30
0.0
 40
1.492488280125144
  0
LINE
  5
AC8
330
18
100
AcDbEntity
  8
MADERA
 62
     7
100
AcDbLine
 10
-216.1760887037505
 20
1013.461812715695
 30
0.0
 11
-176.1760887037505
 21
1013.461812715695
 31
0.0
  0
LINE
  5
AC9
330
18
100
AcDbEntity
  8
MADERA
 62
     7
100
AcDbLine
 10
-216.1760887037505
 20
963.4618127156948
 30
0.0
 11
-176.1760887037505
 21
963.4618127156948
 31
0.0
  0
LINE
  5
ACA
330
18
100
AcDbEntity
  8
MADERA
 62
     7
100
AcDbLine
 10
-171.1760887037505
 20
968.4618127156948
 30
0.0
 11
-171.1760887037505
 21
1008.461812715695
 31
0.0
  0
LINE
  5
ACB
330
18
100
AcDbEntity
  8
MADERA
 62
     7
100
AcDbLine
 10
-221.1760887037505
 20
968.4618127156948
 30
0.0
 11
-221.1760887037505
 21
1008.461812715695
 31
0.0
  0
ARC
  5
ACC
330
18
100
AcDbEntity
  8
MADERA
 62
     7
100
AcDbCircle
 10
-176.1760887037505
 20
1008.461812715695
 30
0.0
 40
5.0
100
AcDbArc
 50
0.0
 51
90.0
  0
ARC
  5
ACD
330
18
100
AcDbEntity
  8
MADERA
 62
     7
100
AcDbCircle
 10
-216.1760887037505
 20
1008.461812715695
 30
0.0
 40
5.0
100
AcDbArc
 50
90.0
 51
180.0
  0
ARC
  5
ACE
330
18
100
AcDbEntity
  8
MADERA
 62
     7
100
AcDbCircle
 10
-216.1760887037505
 20
968.4618127156948
 30
0.0
 40
5.0
100
AcDbArc
 50
180.0
 51
270.0
  0
ARC
  5
ACF
330
18
100
AcDbEntity
  8
MADERA
 62
     7
100
AcDbCircle
 10
-176.1760887037505
 20
968.4618127156948
 30
0.0
 40
5.0
100
AcDbArc
 50
270.0
 51
360.0
  0
CIRCLE
  5
AD0
330
18
100
AcDbEntity
  8
MADERA
 62
     7
100
AcDbCircle
 10
-259.2119503888595
 20
988.4618127156948
 30
0.0
 40
5.0
  0
CIRCLE
  5
AD1
330
18
100
AcDbEntity
  8
MADERA
 62
     7
100
AcDbCircle
 10
-253.6965174956046
 20
993.9772456089499
 30
0.0
 40
1.500070993674854
  0
CIRCLE
  5
AD2
330
18
100
AcDbEntity
  8
MADERA
 62
     7
100
AcDbCircle
 10
-264.7044236255994
 20
982.9234201659242
 30
0.0
 40
1.524876186102119
  0
CIRCLE
  5
AD3
330
18
100
AcDbEntity
  8
MADERA
 62
     7
100
AcDbCircle
 10
-252.4869747565323
 20
981.751759505478
 30
0.0
 40
1.500189308692825
  0
CIRCLE
  5
AD4
330
18
100
AcDbEntity
  8
MADERA
 62
     7
100
AcDbCircle
 10
-265.9241482583508
 20
995.1740105851857
 30
0.0
 40
1.492488280125144
  0
LINE
  5
AD5
330
18
100
AcDbEntity
  8
MADERA
 62
     7
100
AcDbLine
 10
-279.2119503888595
 20
1013.461812715695
 30
0.0
 11
-239.2119503888595
 21
1013.461812715695
 31
0.0
  0
LINE
  5
AD6
330
18
100
AcDbEntity
  8
MADERA
 62
     7
100
AcDbLine
 10
-279.2119503888595
 20
963.4618127156948
 30
0.0
 11
-239.2119503888595
 21
963.4618127156948
 31
0.0
  0
LINE
  5
AD7
330
18
100
AcDbEntity
  8
MADERA
 62
     7
100
AcDbLine
 10
-234.2119503888595
 20
968.4618127156948
 30
0.0
 11
-234.2119503888595
 21
1008.461812715695
 31
0.0
  0
LINE
  5
AD8
330
18
100
AcDbEntity
  8
MADERA
 62
     7
100
AcDbLine
 10
-284.2119503888595
 20
968.4618127156948
 30
0.0
 11
-284.2119503888595
 21
1008.461812715695
 31
0.0
  0
ARC
  5
AD9
330
18
100
AcDbEntity
  8
MADERA
 62
     7
100
AcDbCircle
 10
-239.2119503888595
 20
1008.461812715695
 30
0.0
 40
5.0
100
AcDbArc
 50
0.0
 51
90.0
  0
ARC
  5
ADA
330
18
100
AcDbEntity
  8
MADERA
 62
     7
100
AcDbCircle
 10
-279.2119503888595
 20
1008.461812715695
 30
0.0
 40
5.0
100
AcDbArc
 50
90.0
 51
180.0
  0
ARC
  5
ADB
330
18
100
AcDbEntity
  8
MADERA
 62
     7
100
AcDbCircle
 10
-279.2119503888595
 20
968.4618127156948
 30
0.0
 40
5.0
100
AcDbArc
 50
180.0
 51
270.0
  0
ARC
  5
ADC
330
18
100
AcDbEntity
  8
MADERA
 62
     7
100
AcDbCircle
 10
-239.2119503888595
 20
968.4618127156948
 30
0.0
 40
5.0
100
AcDbArc
 50
270.0
 51
360.0
  0
LINE
  5
ADE
330
18
100
AcDbEntity
  8
MADERA
 62
     7
100
AcDbLine
 10
-386.0605207395724
 20
577.0502729704704
 30
0.0
 11
-144.4328221463258
 21
577.0502729704704
 31
0.0
  0
LINE
  5
ADF
330
18
100
AcDbEntity
  8
MADERA
 62
     7
100
AcDbLine
 10
-386.0605207395724
 20
577.0502729704704
 30
0.0
 11
-386.0605207395724
 21
1027.05027297047
 31
0.0
  0
LINE
  5
AE0
330
18
100
AcDbEntity
  8
MADERA
 62
     7
100
AcDbLine
 10
-144.4328221463258
 20
1027.05027297047
 30
0.0
 11
-386.0605207395724
 21
1027.05027297047
 31
0.0
  0
ARC
  5
AE1
330
18
100
AcDbEntity
  8
MADERA
 62
     7
100
AcDbCircle
 10
-308.1945914782251
 20
968.4618127156948
 30
0.0
 40
5.0
100
AcDbArc
 50
270.0
 51
360.0
  0
ARC
  5
AE2
330
18
100
AcDbEntity
  8
MADERA
 62
     7
100
AcDbCircle
 10
-348.1945914782251
 20
968.4618127156948
 30
0.0
 40
5.0
100
AcDbArc
 50
180.0
 51
270.0
  0
ARC
  5
AE3
330
18
100
AcDbEntity
  8
MADERA
 62
     7
100
AcDbCircle
 10
-348.1945914782251
 20
1008.461812715695
 30
0.0
 40
5.0
100
AcDbArc
 50
90.0
 51
180.0
  0
ARC
  5
AE4
330
18
100
AcDbEntity
  8
MADERA
 62
     7
100
AcDbCircle
 10
-308.1945914782251
 20
1008.461812715695
 30
0.0
 40
5.0
100
AcDbArc
 50
0.0
 51
90.0
  0
LINE
  5
AE5
330
18
100
AcDbEntity
  8
MADERA
 62
     7
100
AcDbLine
 10
-353.1945914782251
 20
968.4618127156948
 30
0.0
 11
-353.1945914782251
 21
1008.461812715695
 31
0.0
  0
LINE
  5
AE6
330
18
100
AcDbEntity
  8
MADERA
 62
     7
100
AcDbLine
 10
-303.1945914782251
 20
968.4618127156948
 30
0.0
 11
-303.1945914782251
 21
1008.461812715695
 31
0.0
  0
LINE
  5
AE7
330
18
100
AcDbEntity
  8
MADERA
 62
     7
100
AcDbLine
 10
-348.1945914782251
 20
963.4618127156948
 30
0.0
 11
-308.1945914782251
 21
963.4618127156948
 31
0.0
  0
LINE
  5
AE8
330
18
100
AcDbEntity
  8
MADERA
 62
     7
100
AcDbLine
 10
-348.1945914782251
 20
1013.461812715695
 30
0.0
 11
-308.1945914782251
 21
1013.461812715695
 31
0.0
  0
CIRCLE
  5
AE9
330
18
100
AcDbEntity
  8
MADERA
 62
     7
100
AcDbCircle
 10
-334.9067893477164
 20
995.1740105851857
 30
0.0
 40
1.492488280125144
  0
CIRCLE
  5
AEA
330
18
100
AcDbEntity
  8
MADERA
 62
     7
100
AcDbCircle
 10
-321.4696158458979
 20
981.751759505478
 30
0.0
 40
1.500189308692825
  0
CIRCLE
  5
AEB
330
18
100
AcDbEntity
  8
MADERA
 62
     7
100
AcDbCircle
 10
-333.687064714965
 20
982.9234201659242
 30
0.0
 40
1.524876186102119
  0
CIRCLE
  5
AEC
330
18
100
AcDbEntity
  8
MADERA
 62
     7
100
AcDbCircle
 10
-322.6791585849702
 20
993.9772456089499
 30
0.0
 40
1.500070993674854
  0
CIRCLE
  5
AED
330
18
100
AcDbEntity
  8
MADERA
 62
     7
100
AcDbCircle
 10
-328.1945914782251
 20
988.4618127156948
 30
0.0
 40
5.0
  0
TEXT
  5
AEE
330
18
100
AcDbEntity
  8
0
 62
     7
100
AcDbText
 10
-573.6164458256726
 20
507.1329743568039
 30
0.0
 40
20.0
  1
Un solo corte en  terciado 3 mm (alcanza para 21 modelos)
100
AcDbText
  0
TEXT
  5
AEF
330
18
100
AcDbEntity
  8
MADERA
 62
     7
100
AcDbText
 10
531.9683716195049
 20
-146.8389444152126
 30
0.0
 40
20.0
  1
3 mm
100
AcDbText
  0
LINE
  5
AF0
330
18
100
AcDbEntity
  8
5MM
 62
     7
100
AcDbLine
 10
-1173.015041498696
 20
281.8054850972067
 30
0.0
 11
-1177.415041346848
 21
281.8043291264412
 31
0.0
  0
LINE
  5
AF1
330
18
100
AcDbEntity
  8
5MM
 62
     7
100
AcDbLine
 10
-1177.415041346848
 20
281.8043291264412
 30
0.0
 11
-1177.413624198762
 21
276.4102036428771
 31
0.0
  0
LINE
  5
AF2
330
18
100
AcDbEntity
  8
5MM
 62
     7
100
AcDbLine
 10
-1177.413624198762
 20
276.4102036428771
 30
0.0
 11
-1173.01362435061
 21
276.4113596136426
 31
0.0
  0
LINE
  5
AF3
330
18
100
AcDbEntity
  8
5MM
 62
     7
100
AcDbLine
 10
-1173.015041498696
 20
281.8054850972067
 30
0.0
 11
-1173.01362435061
 21
276.4113596136426
 31
0.0
  0
LINE
  5
AF4
330
18
100
AcDbEntity
  8
5MM
 62
     7
100
AcDbLine
 10
-1173.011261408262
 20
267.4172342543201
 30
0.0
 11
-1173.012678556348
 21
272.8113597378825
 31
0.0
  0
LINE
  5
AF5
330
18
100
AcDbEntity
  8
5MM
 62
     7
100
AcDbLine
 10
-1177.412678404499
 20
272.8102037671179
 30
0.0
 11
-1173.012678556348
 21
272.8113597378825
 31
0.0
  0
LINE
  5
AF6
330
18
100
AcDbEntity
  8
5MM
 62
     7
100
AcDbLine
 10
-1177.411261256413
 20
267.4160782835551
 30
0.0
 11
-1177.412678404499
 21
272.8102037671179
 31
0.0
  0
LINE
  5
AF7
330
18
100
AcDbEntity
  8
5MM
 62
     7
100
AcDbLine
 10
-1173.011261408262
 20
267.4172342543201
 30
0.0
 11
-1177.411261256413
 21
267.4160782835551
 31
0.0
  0
LINE
  5
AFE
330
18
100
AcDbEntity
  8
5MM
 62
     7
100
AcDbLine
 10
-1082.518179021809
 20
293.7598043111767
 30
0.0
 11
-1086.91817886996
 21
293.7586483404116
 31
0.0
  0
LINE
  5
AFF
330
18
100
AcDbEntity
  8
5MM
 62
     7
100
AcDbLine
 10
-1086.91817886996
 20
293.7586483404116
 30
0.0
 11
-1086.914395692912
 21
279.3586488373707
 31
0.0
  0
LINE
  5
B00
330
18
100
AcDbEntity
  8
5MM
 62
     7
100
AcDbLine
 10
-1082.518179021809
 20
293.7598043111767
 30
0.0
 11
-1082.514395844761
 21
279.3598048081353
 31
0.0
  0
LINE
  5
B01
330
18
100
AcDbEntity
  8
5MM
 62
     7
100
AcDbLine
 10
-1082.514395844761
 20
279.3598048081353
 30
0.0
 11
-1086.914395692912
 21
279.3586488373707
 31
0.0
  0
LINE
  5
B02
330
18
100
AcDbEntity
  8
5MM
 62
     7
100
AcDbLine
 10
-1082.511913308701
 20
269.910466977135
 30
0.0
 11
-1086.911913156852
 21
269.9093110063692
 31
0.0
  0
LINE
  5
B03
330
18
100
AcDbEntity
  8
5MM
 62
     7
100
AcDbLine
 10
-1086.908129979804
 20
255.5093115033283
 30
0.0
 11
-1086.911913156852
 21
269.9093110063692
 31
0.0
  0
LINE
  5
B04
330
18
100
AcDbEntity
  8
5MM
 62
     7
100
AcDbLine
 10
-1082.508130131651
 20
255.5104674740937
 30
0.0
 11
-1082.511913308701
 21
269.910466977135
 31
0.0
  0
LINE
  5
B05
330
18
100
AcDbEntity
  8
5MM
 62
     7
100
AcDbLine
 10
-1082.508130131652
 20
255.5104674740937
 30
0.0
 11
-1086.908129979804
 21
255.5093115033283
 31
0.0
  0
LINE
  5
B0A
330
18
100
AcDbEntity
  8
MADERA
 62
     7
100
AcDbLine
 10
-992.0212157148476
 20
305.3303315502886
 30
0.0
 11
-992.0174325377993
 21
290.9303320472464
 31
0.0
  0
LINE
  5
B0B
330
18
100
AcDbEntity
  8
5MM
 62
     7
100
AcDbLine
 10
-992.0212157148476
 20
305.3303315502886
 30
0.0
 11
-996.4212155630012
 21
305.3291755795236
 31
0.0
  0
LINE
  5
B0C
330
18
100
AcDbEntity
  8
5MM
 62
     7
100
AcDbLine
 10
-996.4212155630012
 20
305.3291755795236
 30
0.0
 11
-996.417432385952
 21
290.9291760764825
 31
0.0
  0
LINE
  5
B0D
330
18
100
AcDbEntity
  8
5MM
 62
     7
100
AcDbLine
 10
-992.0174325377992
 20
290.9303320472464
 30
0.0
 11
-996.4174323859519
 21
290.9291760764825
 31
0.0
  0
LINE
  5
B0E
330
18
100
AcDbEntity
  8
5MM
 62
     7
100
AcDbLine
 10
-992.0088828621642
 20
258.3874921717662
 30
0.0
 11
-996.4088827103142
 21
258.3863362010015
 31
0.0
  0
LINE
  5
B0F
330
18
100
AcDbEntity
  8
MADERA
 62
     7
100
AcDbLine
 10
-992.0088828621642
 20
258.3874921717662
 30
0.0
 11
-992.005099685115
 21
243.9874926687257
 31
0.0
  0
LINE
  5
B10
330
18
100
AcDbEntity
  8
5MM
 62
     7
100
AcDbLine
 10
-996.405099533265
 20
243.9863366979611
 30
0.0
 11
-996.4088827103142
 21
258.3863362010015
 31
0.0
  0
LINE
  5
B11
330
18
100
AcDbEntity
  8
5MM
 62
     7
100
AcDbLine
 10
-992.0050996851152
 20
243.9874926687257
 30
0.0
 11
-996.4050995332649
 21
243.9863366979611
 31
0.0
  0
LINE
  5
B14
330
18
100
AcDbEntity
  8
5MM
 62
     7
100
AcDbLine
 10
-901.5225955041283
 20
310.5941453947918
 30
0.0
 11
-905.9225953522791
 21
310.5929894240271
 31
0.0
  0
LINE
  5
B15
330
18
100
AcDbEntity
  8
5MM
 62
     7
100
AcDbLine
 10
-901.5225955041283
 20
310.5941453947918
 30
0.0
 11
-901.5188123270781
 21
296.1941458917508
 31
0.0
  0
LINE
  5
B16
330
18
100
AcDbEntity
  8
5MM
 62
     7
100
AcDbLine
 10
-905.9225953522791
 20
310.5929894240271
 30
0.0
 11
-905.9188121752301
 21
296.1929899209858
 31
0.0
  0
LINE
  5
B17
330
18
100
AcDbEntity
  8
5MM
 62
     7
100
AcDbLine
 10
-901.5188123270781
 20
296.1941458917508
 30
0.0
 11
-905.9188121752302
 21
296.1929899209858
 31
0.0
  0
LINE
  5
B19
330
18
100
AcDbEntity
  8
5MM
 62
     7
100
AcDbLine
 10
-901.5075093193889
 20
253.1712307610074
 30
0.0
 11
-905.9075091675403
 21
253.1700747902424
 31
0.0
  0
LINE
  5
B1A
330
18
100
AcDbEntity
  8
5MM
 62
     7
100
AcDbLine
 10
-901.5037261423396
 20
238.7712312579674
 30
0.0
 11
-901.5075093193886
 21
253.1712307610074
 31
0.0
  0
LINE
  5
B1B
330
18
100
AcDbEntity
  8
5MM
 62
     7
100
AcDbLine
 10
-905.9037259904902
 20
238.7700752872024
 30
0.0
 11
-905.9075091675404
 21
253.1700747902424
 31
0.0
  0
LINE
  5
B1C
330
18
100
AcDbEntity
  8
5MM
 62
     7
100
AcDbLine
 10
-901.5037261423394
 20
238.7712312579674
 30
0.0
 11
-905.9037259904903
 21
238.7700752872024
 31
0.0
  0
LINE
  5
B20
330
18
100
AcDbEntity
  8
MADERA
 62
     7
100
AcDbLine
 10
-817.9271141737263
 20
327.8046499383786
 30
0.0
 11
-808.5271144981302
 21
327.807119512284
 31
0.0
  0
LINE
  5
B21
330
18
100
AcDbEntity
  8
MADERA
 62
     7
100
AcDbLine
 10
-817.9246445998191
 20
318.4046502627811
 30
0.0
 11
-817.9271141737263
 21
327.8046499383786
 31
0.0
  0
LINE
  5
B22
330
18
100
AcDbEntity
  8
MADERA
 62
     7
100
AcDbLine
 10
-808.5246449242231
 20
318.4071198366891
 30
0.0
 11
-808.5271144981302
 21
327.807119512284
 31
0.0
  0
LINE
  5
B23
330
18
100
AcDbEntity
  8
MADERA
 62
     7
100
AcDbLine
 10
-817.9246445998192
 20
318.4046502627811
 30
0.0
 11
-808.524644924223
 21
318.4071198366891
 31
0.0
  0
LINE
  5
B24
330
18
100
AcDbEntity
  8
MADERA
 62
     7
100
AcDbLine
 10
-817.901682816895
 20
231.0046532790484
 30
0.0
 11
-808.5016831412981
 21
231.0071228529555
 31
0.0
  0
LINE
  5
B25
330
18
100
AcDbEntity
  8
MADERA
 62
     7
100
AcDbLine
 10
-817.8992132429871
 20
221.6046536034528
 30
0.0
 11
-817.9016828168951
 21
231.0046532790484
 31
0.0
  0
LINE
  5
B26
330
18
100
AcDbEntity
  8
MADERA
 62
     7
100
AcDbLine
 10
-808.499213567391
 20
221.6071231773599
 30
0.0
 11
-808.5016831412983
 21
231.0071228529555
 31
0.0
  0
LINE
  5
B27
330
18
100
AcDbEntity
  8
MADERA
 62
     7
100
AcDbLine
 10
-817.8992132429871
 20
221.6046536034528
 30
0.0
 11
-808.499213567391
 21
221.6071231773599
 31
0.0
  0
LINE
  5
B2B
330
18
100
AcDbEntity
  8
5MM
 62
     7
100
AcDbLine
 10
-749.9231757110538
 20
312.8225154587768
 30
0.0
 11
-745.5231758629028
 21
312.8236714295418
 31
0.0
  0
LINE
  5
B2C
330
18
100
AcDbEntity
  8
5MM
 62
     7
100
AcDbLine
 10
-749.9231757110538
 20
312.8225154587768
 30
0.0
 11
-749.9193925340037
 21
298.4225159557363
 31
0.0
  0
LINE
  5
B2D
330
18
100
AcDbEntity
  8
5MM
 62
     7
100
AcDbLine
 10
-745.5231758629029
 20
312.8236714295418
 30
0.0
 11
-745.5193926858528
 21
298.4236719265013
 31
0.0
  0
LINE
  5
B2E
330
18
100
AcDbEntity
  8
5MM
 62
     7
100
AcDbLine
 10
-749.9193925340036
 20
298.4225159557363
 30
0.0
 11
-745.5193926858528
 21
298.4236719265013
 31
0.0
  0
LINE
  5
B2F
330
18
100
AcDbEntity
  8
5MM
 62
     7
100
AcDbLine
 10
-749.9069395762174
 20
251.0225175915603
 30
0.0
 11
-745.5069397280664
 21
251.0236735623253
 31
0.0
  0
LINE
  5
B30
330
18
100
AcDbEntity
  8
5MM
 62
     7
100
AcDbLine
 10
-745.5031565510162
 20
236.6236740592849
 30
0.0
 11
-745.5069397280662
 21
251.0236735623253
 31
0.0
  0
LINE
  5
B31
330
18
100
AcDbEntity
  8
5MM
 62
     7
100
AcDbLine
 10
-749.903156399168
 20
236.6225180885199
 30
0.0
 11
-749.9069395762173
 21
251.0225175915603
 31
0.0
  0
LINE
  5
B32
330
18
100
AcDbEntity
  8
5MM
 62
     7
100
AcDbLine
 10
-749.9031563991679
 20
236.6225180885199
 30
0.0
 11
-745.5031565510162
 21
236.6236740592849
 31
0.0
  0
LINE
  5
B3B
330
18
100
AcDbEntity
  8
5MM
 62
     7
100
AcDbLine
 10
-680.0226992780104
 20
311.0182387793781
 30
0.0
 11
-684.4226991261621
 21
311.0170828086134
 31
0.0
  0
LINE
  5
B3C
330
18
100
AcDbEntity
  8
5MM
 62
     7
100
AcDbLine
 10
-680.0226992780104
 20
311.0182387793781
 30
0.0
 11
-680.0189161009612
 21
296.618239276338
 31
0.0
  0
LINE
  5
B3D
330
18
100
AcDbEntity
  8
5MM
 62
     7
100
AcDbLine
 10
-684.4226991261621
 20
311.0170828086134
 30
0.0
 11
-684.418915949112
 21
296.617083305573
 31
0.0
  0
LINE
  5
B3E
330
18
100
AcDbEntity
  8
5MM
 62
     7
100
AcDbLine
 10
-680.0189161009611
 20
296.618239276338
 30
0.0
 11
-684.418915949112
 21
296.617083305573
 31
0.0
  0
LINE
  5
B41
330
18
100
AcDbEntity
  8
5MM
 62
     7
100
AcDbLine
 10
-680.003637656857
 20
238.4635231117713
 30
0.0
 11
-680.0074208339068
 21
252.8635226148126
 31
0.0
  0
LINE
  5
B42
330
18
100
AcDbEntity
  8
5MM
 62
     7
100
AcDbLine
 10
-680.0074208339068
 20
252.8635226148126
 30
0.0
 11
-684.4074206820578
 21
252.8623666440468
 31
0.0
  0
LINE
  5
B43
330
18
100
AcDbEntity
  8
5MM
 62
     7
100
AcDbLine
 10
-684.4036375050086
 20
238.4623671410067
 30
0.0
 11
-684.4074206820579
 21
252.8623666440468
 31
0.0
  0
LINE
  5
B44
330
18
100
AcDbEntity
  8
5MM
 62
     7
100
AcDbLine
 10
-680.0036376568569
 20
238.4635231117713
 30
0.0
 11
-684.4036375050086
 21
238.4623671410067
 31
0.0
  0
LINE
  5
B45
330
18
100
AcDbEntity
  8
5MM
 62
     7
100
AcDbLine
 10
-614.5214044090012
 20
306.098151241667
 30
0.0
 11
-618.921404257153
 21
306.096995270902
 31
0.0
  0
LINE
  5
B46
330
18
100
AcDbEntity
  8
5MM
 62
     7
100
AcDbLine
 10
-614.5214044090012
 20
306.098151241667
 30
0.0
 11
-614.5176212319528
 21
291.6981517386261
 31
0.0
  0
LINE
  5
B47
330
18
100
AcDbEntity
  8
5MM
 62
     7
100
AcDbLine
 10
-618.921404257153
 20
306.096995270902
 30
0.0
 11
-618.9176210801038
 21
291.6969957678602
 31
0.0
  0
LINE
  5
B48
330
18
100
AcDbEntity
  8
5MM
 62
     7
100
AcDbLine
 10
-614.5176212319528
 20
291.6981517386261
 30
0.0
 11
-618.9176210801039
 21
291.6969957678602
 31
0.0
  0
LINE
  5
B4B
330
18
100
AcDbEntity
  8
5MM
 62
     7
100
AcDbLine
 10
-614.5087202238668
 20
257.8180265548472
 30
0.0
 11
-618.9087200720178
 21
257.8168705840814
 31
0.0
  0
LINE
  5
B4C
330
18
100
AcDbEntity
  8
5MM
 62
     7
100
AcDbLine
 10
-614.5049370468168
 20
243.4180270518054
 30
0.0
 11
-614.5087202238668
 21
257.8180265548472
 31
0.0
  0
LINE
  5
B4D
330
18
100
AcDbEntity
  8
5MM
 62
     7
100
AcDbLine
 10
-618.9049368949686
 20
243.4168710810408
 30
0.0
 11
-618.9087200720179
 21
257.8168705840814
 31
0.0
  0
LINE
  5
B4E
330
18
100
AcDbEntity
  8
5MM
 62
     7
100
AcDbLine
 10
-614.5049370468168
 20
243.4180270518054
 30
0.0
 11
-618.9049368949686
 21
243.4168710810408
 31
0.0
  0
LINE
  5
B50
330
18
100
AcDbEntity
  8
5MM
 62
     7
100
AcDbLine
 10
-549.019261006773
 20
297.9482709177155
 30
0.0
 11
-553.4192608549238
 21
297.9471149469497
 31
0.0
  0
LINE
  5
B51
330
18
100
AcDbEntity
  8
5MM
 62
     7
100
AcDbLine
 10
-549.0192610067729
 20
297.9482709177155
 30
0.0
 11
-549.0154778297228
 21
283.5482714146742
 31
0.0
  0
LINE
  5
B52
330
18
100
AcDbEntity
  8
5MM
 62
     7
100
AcDbLine
 10
-553.4192608549239
 20
297.9471149469497
 30
0.0
 11
-553.4154776778746
 21
283.5471154439087
 31
0.0
  0
LINE
  5
B53
330
18
100
AcDbEntity
  8
5MM
 62
     7
100
AcDbLine
 10
-549.0154778297228
 20
283.5482714146742
 30
0.0
 11
-553.4154776778746
 21
283.5471154439087
 31
0.0
  0
LINE
  5
B54
330
18
100
AcDbEntity
  8
5MM
 62
     7
100
AcDbLine
 10
-549.0108681470441
 20
266.0023232811214
 30
0.0
 11
-553.410867995196
 21
266.0011673103564
 31
0.0
  0
LINE
  5
B55
330
18
100
AcDbEntity
  8
5MM
 62
     7
100
AcDbLine
 10
-549.007084969995
 20
251.6023237780809
 30
0.0
 11
-549.0108681470443
 21
266.0023232811214
 31
0.0
  0
LINE
  5
B56
330
18
100
AcDbEntity
  8
5MM
 62
     7
100
AcDbLine
 10
-553.4070848181468
 20
251.6011678073159
 30
0.0
 11
-553.410867995196
 21
266.0011673103564
 31
0.0
  0
LINE
  5
B57
330
18
100
AcDbEntity
  8
5MM
 62
     7
100
AcDbLine
 10
-549.007084969995
 20
251.6023237780809
 30
0.0
 11
-553.4070848181469
 21
251.6011678073159
 31
0.0
  0
LINE
  5
B58
330
18
100
AcDbEntity
  8
5MM
 62
     7
100
AcDbLine
 10
-520.6669874666641
 20
289.2981635599767
 30
0.0
 11
-520.6645178927579
 21
279.8981638843806
 31
0.0
  0
LINE
  5
B59
330
18
100
AcDbEntity
  8
5MM
 62
     7
100
AcDbLine
 10
-516.2669876185132
 20
289.2993195307414
 30
0.0
 11
-516.2645180446061
 21
279.8993198551456
 31
0.0
  0
LINE
  5
B5A
330
18
100
AcDbEntity
  8
5MM
 62
     7
100
AcDbLine
 10
-516.2645180446061
 20
279.8993198551456
 30
0.0
 11
-520.6645178927579
 21
279.8981638843806
 31
0.0
  0
LINE
  5
B5B
330
18
100
AcDbEntity
  8
5MM
 62
     7
100
AcDbLine
 10
-516.2669876185132
 20
289.2993195307414
 30
0.0
 11
-520.6669874666641
 21
289.2981635599767
 31
0.0
  0
LINE
  5
B5C
330
18
100
AcDbEntity
  8
5MM
 62
     7
100
AcDbLine
 10
-516.2618301926364
 20
269.6684830418122
 30
0.0
 11
-520.6618300407881
 21
269.6673270710472
 31
0.0
  0
LINE
  5
B5D
330
18
100
AcDbEntity
  8
5MM
 62
     7
100
AcDbLine
 10
-516.2593606187293
 20
260.268483366216
 30
0.0
 11
-516.2618301926364
 21
269.6684830418122
 31
0.0
  0
LINE
  5
B5F
330
18
100
AcDbEntity
  8
5MM
 62
     7
100
AcDbLine
 10
-520.6593604668801
 20
260.267327395451
 30
0.0
 11
-520.6618300407881
 21
269.6673270710472
 31
0.0
  0
LINE
  5
B60
330
18
100
AcDbEntity
  8
5MM
 62
     7
100
AcDbLine
 10
-516.2593606187293
 20
260.268483366216
 30
0.0
 11
-520.6593604668801
 21
260.267327395451
 31
0.0
  0
ARC
  5
B7C
330
18
100
AcDbEntity
  8
5MM
 62
     7
100
AcDbCircle
 10
-839.3192740721006
 20
-1245.833474961999
 30
0.0
 40
1579.378900266812
100
AcDbArc
 50
89.23471341732048
 51
105.7046313770614
  0
ARC
  5
B7E
330
18
100
AcDbEntity
  8
5MM
 62
     7
100
AcDbCircle
 10
-840.1182245539285
 20
1795.231320949125
 30
0.0
 40
1579.378900266807
100
AcDbArc
 50
254.3253958991857
 51
270.7953921494251
  0
LINE
  5
B80
330
18
100
AcDbEntity
  8
5MM
 62
     7
100
AcDbLine
 10
-818.2285853988922
 20
333.4045709289273
 30
0.0
 11
-747.7285878319233
 21
333.4230927332316
 31
0.0
  0
ARC
  5
B81
330
18
100
AcDbEntity
  8
5MM
 62
     7
100
AcDbCircle
 10
-730.1635956611708
 20
-799.9500029718502
 30
0.0
 40
1133.499840195486
100
AcDbArc
 50
80.86465473224929
 51
90.88813599257668
  0
ARC
  5
B82
330
18
100
AcDbEntity
  8
5MM
 62
     7
100
AcDbCircle
 10
-592.8906637775181
 20
109.3176773180485
 30
0.0
 40
214.1532058031509
100
AcDbArc
 50
70.05260375003029
 51
78.49821703396874
  0
ARC
  5
B83
330
18
100
AcDbEntity
  8
5MM
 62
     7
100
AcDbCircle
 10
-544.5393714971906
 20
247.4839604544254
 30
0.0
 40
67.80170051809081
100
AcDbArc
 50
29.30529499278941
 51
68.62144255098293
  0
LINE
  5
B84
330
18
100
AcDbEntity
  8
5MM
 62
     7
100
AcDbLine
 10
-485.4132737428087
 20
268.9105864340202
 30
0.0
 11
-485.4146585297751
 21
280.6703870421977
 31
0.0
  0
ARC
  5
B86
330
18
100
AcDbEntity
  8
5MM
 62
     7
100
AcDbCircle
 10
-544.5537121086354
 20
302.0689811937546
 30
0.0
 40
67.80170051808823
100
AcDbArc
 50
291.4086630157621
 51
330.7218661005733
  0
ARC
  5
B87
330
18
100
AcDbEntity
  8
5MM
 62
     7
100
AcDbCircle
 10
-592.9775959773051
 20
440.2098394941613
 30
0.0
 40
214.1532058031511
100
AcDbArc
 50
281.5318885327767
 51
289.9775018167152
  0
ARC
  5
B88
330
18
100
AcDbEntity
  8
5MM
 62
     7
100
AcDbCircle
 10
-730.7282756474697
 20
1349.405265405509
 30
0.0
 40
1133.499840195488
100
AcDbArc
 50
269.1419695741686
 51
279.1654508344961
  0
LINE
  5
B89
330
18
100
AcDbEntity
  8
5MM
 62
     7
100
AcDbLine
 10
-818.1977419971165
 20
216.0045749805265
 30
0.0
 11
-747.6977444301458
 21
216.0230967848304
 31
0.0
  0
LINE
  5
B92
330
18
100
AcDbEntity
  8
5MM
 62
     7
100
AcDbLine
 10
-577.732060646965
 20
215.2348049462701
 30
0.0
 11
-577.732060646965
 21
174.4740920965204
 31
0.0
  0
LINE
  5
B93
330
18
100
AcDbEntity
  8
5MM
 62
     7
100
AcDbLine
 10
-562.732060646965
 20
215.2348049462701
 30
0.0
 11
-577.732060646965
 21
215.2348049462701
 31
0.0
  0
LINE
  5
B94
330
18
100
AcDbEntity
  8
5MM
 62
     7
100
AcDbLine
 10
-562.732060646965
 20
220.2348049462701
 30
0.0
 11
-562.732060646965
 21
215.2348049462701
 31
0.0
  0
LINE
  5
B95
330
18
100
AcDbEntity
  8
5MM
 62
     7
100
AcDbLine
 10
-547.1320606469651
 20
220.2348049462701
 30
0.0
 11
-562.732060646965
 21
220.2348049462701
 31
0.0
  0
LINE
  5
B96
330
18
100
AcDbEntity
  8
5MM
 62
     7
100
AcDbLine
 10
-547.1320606469651
 20
220.2348049462701
 30
0.0
 11
-547.1320606469651
 21
215.2348049462701
 31
0.0
  0
LINE
  5
B97
330
18
100
AcDbEntity
  8
5MM
 62
     7
100
AcDbLine
 10
-540.156636330709
 20
215.2348049462701
 30
0.0
 11
-547.1320606469651
 21
215.2348049462701
 31
0.0
  0
LINE
  5
B98
330
18
100
AcDbEntity
  8
5MM
 62
     7
100
AcDbLine
 10
-540.156636330709
 20
215.2348049462701
 30
0.0
 11
-540.156636330709
 21
210.2348049462701
 31
0.0
  0
LINE
  5
B99
330
18
100
AcDbEntity
  8
5MM
 62
     7
100
AcDbLine
 10
-540.156636330709
 20
210.2348049462701
 30
0.0
 11
-537.756636330709
 21
210.2348049462701
 31
0.0
  0
LINE
  5
B9A
330
18
100
AcDbEntity
  8
5MM
 62
     7
100
AcDbLine
 10
-537.756636330709
 20
215.2348049462701
 30
0.0
 11
-537.756636330709
 21
210.2348049462701
 31
0.0
  0
LINE
  5
B9B
330
18
100
AcDbEntity
  8
5MM
 62
     7
100
AcDbLine
 10
-537.756636330709
 20
215.2348049462701
 30
0.0
 11
-530.756636330709
 21
215.2348049462701
 31
0.0
  0
LINE
  5
B9C
330
18
100
AcDbEntity
  8
5MM
 62
     7
100
AcDbLine
 10
-530.756636330709
 20
220.2348049462701
 30
0.0
 11
-530.756636330709
 21
215.2348049462701
 31
0.0
  0
LINE
  5
B9D
330
18
100
AcDbEntity
  8
5MM
 62
     7
100
AcDbLine
 10
-530.756636330709
 20
220.2348049462701
 30
0.0
 11
-515.156636330709
 21
220.2348049462701
 31
0.0
  0
LINE
  5
B9E
330
18
100
AcDbEntity
  8
5MM
 62
     7
100
AcDbLine
 10
-515.156636330709
 20
220.2348049462701
 30
0.0
 11
-515.156636330709
 21
215.2348049462701
 31
0.0
  0
LINE
  5
B9F
330
18
100
AcDbEntity
  8
5MM
 62
     7
100
AcDbLine
 10
-515.156636330709
 20
215.2348049462701
 30
0.0
 11
-500.156636330709
 21
215.2348049462701
 31
0.0
  0
LINE
  5
BA0
330
18
100
AcDbEntity
  8
5MM
 62
     7
100
AcDbLine
 10
-500.156636330709
 20
215.2348049462701
 30
0.0
 11
-500.156636330709
 21
174.4740920965211
 31
0.0
  0
ARC
  5
BA1
330
18
100
AcDbEntity
  8
5MM
 62
     7
100
AcDbCircle
 10
-580.8483424466781
 20
117.0216403885893
 30
0.0
 40
57.5369048481701
100
AcDbArc
 50
43.25612875425089
 51
86.89525869280516
  0
ARC
  5
BA2
330
18
100
AcDbEntity
  8
5MM
 62
     7
100
AcDbCircle
 10
-497.0403545309969
 20
117.0216403885893
 30
0.0
 40
57.53690484817076
100
AcDbArc
 50
93.10474130719386
 51
136.7438712457491
  0
LINE
  5
BA5
330
18
100
AcDbEntity
  8
5MM
 62
     7
100
AcDbLine
 10
-1270.830031786397
 20
174.302730240331
 30
0.0
 11
-1270.830031786397
 21
137.669944027118
 31
0.0
  0
LINE
  5
BA6
330
18
100
AcDbEntity
  8
5MM
 62
     7
100
AcDbLine
 10
-1255.830031786397
 20
174.302730240331
 30
0.0
 11
-1270.830031786397
 21
174.302730240331
 31
0.0
  0
LINE
  5
BA7
330
18
100
AcDbEntity
  8
5MM
 62
     7
100
AcDbLine
 10
-1255.830031786397
 20
179.302730240331
 30
0.0
 11
-1255.830031786397
 21
174.302730240331
 31
0.0
  0
LINE
  5
BA8
330
18
100
AcDbEntity
  8
5MM
 62
     7
100
AcDbLine
 10
-1240.230031786397
 20
179.302730240331
 30
0.0
 11
-1255.830031786397
 21
179.302730240331
 31
0.0
  0
LINE
  5
BA9
330
18
100
AcDbEntity
  8
5MM
 62
     7
100
AcDbLine
 10
-1240.230031786397
 20
179.302730240331
 30
0.0
 11
-1240.230031786397
 21
174.302730240331
 31
0.0
  0
LINE
  5
BAA
330
18
100
AcDbEntity
  8
5MM
 62
     7
100
AcDbLine
 10
-1225.94601415756
 20
174.302730240331
 30
0.0
 11
-1240.230031786397
 21
174.302730240331
 31
0.0
  0
LINE
  5
BAB
330
18
100
AcDbEntity
  8
5MM
 62
     7
100
AcDbLine
 10
-1225.94601415756
 20
174.302730240331
 30
0.0
 11
-1225.94601415756
 21
169.302730240331
 31
0.0
  0
LINE
  5
BAC
330
18
100
AcDbEntity
  8
5MM
 62
     7
100
AcDbLine
 10
-1223.54601415756
 20
169.302730240331
 30
0.0
 11
-1225.94601415756
 21
169.302730240331
 31
0.0
  0
LINE
  5
BAD
330
18
100
AcDbEntity
  8
5MM
 62
     7
100
AcDbLine
 10
-1223.54601415756
 20
174.302730240331
 30
0.0
 11
-1223.54601415756
 21
169.302730240331
 31
0.0
  0
LINE
  5
BAE
330
18
100
AcDbEntity
  8
5MM
 62
     7
100
AcDbLine
 10
-1223.54601415756
 20
174.302730240331
 30
0.0
 11
-1209.24601415756
 21
174.302730240331
 31
0.0
  0
LINE
  5
BAF
330
18
100
AcDbEntity
  8
5MM
 62
     7
100
AcDbLine
 10
-1209.24601415756
 20
179.302730240331
 30
0.0
 11
-1209.24601415756
 21
174.302730240331
 31
0.0
  0
LINE
  5
BB0
330
18
100
AcDbEntity
  8
5MM
 62
     7
100
AcDbLine
 10
-1209.24601415756
 20
179.302730240331
 30
0.0
 11
-1193.64601415756
 21
179.302730240331
 31
0.0
  0
LINE
  5
BB1
330
18
100
AcDbEntity
  8
5MM
 62
     7
100
AcDbLine
 10
-1193.64601415756
 20
179.302730240331
 30
0.0
 11
-1193.64601415756
 21
174.302730240331
 31
0.0
  0
LINE
  5
BB2
330
18
100
AcDbEntity
  8
5MM
 62
     7
100
AcDbLine
 10
-1193.64601415756
 20
174.302730240331
 30
0.0
 11
-1178.64601415756
 21
174.302730240331
 31
0.0
  0
LINE
  5
BB3
330
18
100
AcDbEntity
  8
5MM
 62
     7
100
AcDbLine
 10
-1178.64601415756
 20
174.302730240331
 30
0.0
 11
-1178.64601415756
 21
137.669944027118
 31
0.0
  0
LINE
  5
BB4
330
18
100
AcDbEntity
  8
5MM
 62
     7
100
AcDbLine
 10
-1224.738022971978
 20
133.6374157767195
 30
0.0
 11
-1178.64601415756
 21
137.669944027118
 31
0.0
  0
LINE
  5
BB5
330
18
100
AcDbEntity
  8
5MM
 62
     7
100
AcDbLine
 10
-1224.738022971978
 20
133.6374157767195
 30
0.0
 11
-1270.830031786397
 21
137.669944027118
 31
0.0
  0
LINE
  5
BBC
330
18
100
AcDbEntity
  8
5MM
 62
     7
100
AcDbLine
 10
-1060.059363155991
 20
213.0668506495161
 30
0.0
 11
-1070.117299048263
 21
167.4409031512566
 31
0.0
  0
LINE
  5
BBD
330
18
100
AcDbEntity
  8
5MM
 62
     7
100
AcDbLine
 10
-914.5240132869046
 20
198.0114696285762
 30
0.0
 11
-1060.059363155991
 21
213.0668506495161
 31
0.0
  0
LINE
  5
BBE
330
18
100
AcDbEntity
  8
5MM
 62
     7
100
AcDbLine
 10
-914.5240132869046
 20
198.0114696285762
 30
0.0
 11
-914.5240132869046
 21
167.4409031512566
 31
0.0
  0
LINE
  5
BBF
330
18
100
AcDbEntity
  8
5MM
 62
     7
100
AcDbLine
 10
-914.5240132869046
 20
167.4409031512566
 30
0.0
 11
-1070.117299048263
 21
167.4409031512566
 31
0.0
  0
LINE
  5
BC1
330
18
100
AcDbEntity
  8
5MM
 62
     7
100
AcDbLine
 10
-1115.576521766081
 20
32.35874901680961
 30
0.0
 11
-1271.16980752744
 21
32.35874901680961
 31
0.0
  0
LINE
  5
BC2
330
18
100
AcDbEntity
  8
5MM
 62
     7
100
AcDbLine
 10
-1115.576521766081
 20
62.92931549412918
 30
0.0
 11
-1115.576521766081
 21
32.35874901680961
 31
0.0
  0
LINE
  5
BC3
330
18
100
AcDbEntity
  8
5MM
 62
     7
100
AcDbLine
 10
-1115.576521766081
 20
62.92931549412918
 30
0.0
 11
-1261.111871635168
 21
77.98469651506917
 31
0.0
  0
LINE
  5
BC4
330
18
100
AcDbEntity
  8
5MM
 62
     7
100
AcDbLine
 10
-1261.111871635168
 20
77.98469651506917
 30
0.0
 11
-1271.16980752744
 21
32.35874901680961
 31
0.0
  0
LINE
  5
BC5
330
18
100
AcDbEntity
  8
5MM
 62
     7
100
AcDbLine
 10
-1272.734672692254
 20
244.7151878923027
 30
0.0
 11
-1272.734672692254
 21
184.9891573416596
 31
0.0
  0
LINE
  5
BC6
330
18
100
AcDbEntity
  8
5MM
 62
     7
100
AcDbLine
 10
-1272.734672692254
 20
244.7151878923027
 30
0.0
 11
-1218.656557853995
 21
239.9839658991026
 31
0.0
  0
ARC
  5
BC7
330
18
100
AcDbEntity
  8
5MM
 62
     7
100
AcDbCircle
 10
-1210.042442969525
 20
238.9218284559358
 30
0.0
 40
8.67934969862543
100
AcDbArc
 50
172.9707960613317
 51
357.0292039386557
  0
LINE
  5
BC8
330
18
100
AcDbEntity
  8
5MM
 62
     7
100
AcDbLine
 10
-1201.374757614523
 20
238.472004292827
 30
0.0
 11
-1084.577580216724
 21
228.2535753386948
 31
0.0
  0
LINE
  5
BC9
330
18
100
AcDbEntity
  8
MADERA
 62
     7
100
AcDbLine
 10
-1084.577580216724
 20
228.2535753386948
 30
0.0
 11
-1084.577580216724
 21
184.9891573416596
 31
0.0
  0
LINE
  5
BCA
330
18
100
AcDbEntity
  8
5MM
 62
     7
100
AcDbLine
 10
-1272.734672692254
 20
184.9891573416596
 30
0.0
 11
-1084.577580216724
 21
184.9891573416596
 31
0.0
  0
LINE
  5
BD3
330
18
100
AcDbEntity
  8
5MM
 62
     7
100
AcDbLine
 10
-814.1149060850918
 20
166.1825348839451
 30
0.0
 11
-814.1234184484358
 21
180.5271845592168
 31
0.0
  0
LINE
  5
BD4
330
18
100
AcDbEntity
  8
5MM
 62
     7
100
AcDbLine
 10
-814.1234184484358
 20
180.5271845592168
 30
0.0
 11
-682.7865593481511
 21
180.6106436944216
 31
0.0
  0
ARC
  5
BD5
330
18
100
AcDbEntity
  8
5MM
 62
     7
100
AcDbCircle
 10
-683.0185925424794
 20
-107.2153036915661
 30
0.0
 40
287.8260361082469
100
AcDbArc
 50
63.17422252222782
 51
89.95513766383145
  0
ARC
  5
BD6
330
18
100
AcDbEntity
  8
5MM
 62
     7
100
AcDbCircle
 10
-468.3932665787661
 20
304.6689677677527
 30
0.0
 40
176.6812917808152
100
AcDbArc
 50
241.2905077874892
 51
254.7135472073941
  0
LINE
  5
BD8
330
18
100
AcDbEntity
  8
5MM
 62
     7
100
AcDbLine
 10
-514.9594078135318
 20
108.8367823920455
 30
0.0
 11
-1271.860274365001
 21
108.3562972296478
 31
0.0
  0
LINE
  5
BD9
330
18
100
AcDbEntity
  8
5MM
 62
     7
100
AcDbLine
 10
-1271.860274365001
 20
108.3562972296478
 30
0.0
 11
-1271.864031087558
 21
116.0968987473823
 31
0.0
  0
LINE
  5
BDA
330
18
100
AcDbEntity
  8
5MM
 62
     7
100
AcDbLine
 10
-814.1149060850918
 20
166.1825348839451
 30
0.0
 11
-1271.864031087558
 21
116.0968987473823
 31
0.0
  0
LINE
  5
BFA
330
18
100
AcDbEntity
  8
5MM
 62
     7
100
AcDbLine
 10
-814.1149060850918
 20
43.14709051671088
 30
0.0
 11
-1271.864031087558
 21
93.23272665327372
 31
0.0
  0
LINE
  5
BFB
330
18
100
AcDbEntity
  8
5MM
 62
     7
100
AcDbLine
 10
-1271.860274365001
 20
100.9733281710082
 30
0.0
 11
-1271.864031087558
 21
93.23272665327372
 31
0.0
  0
LINE
  5
BFC
330
18
100
AcDbEntity
  8
5MM
 62
     7
100
AcDbLine
 10
-514.9594078135318
 20
100.4928430086104
 30
0.0
 11
-1271.860274365001
 21
100.9733281710082
 31
0.0
  0
LINE
  5
BFD
330
18
100
AcDbEntity
  8
5MM
 62
     7
100
AcDbLine
 10
-814.1149060850918
 20
43.14709051671088
 30
0.0
 11
-814.1234184484358
 21
28.80244084143919
 31
0.0
  0
LINE
  5
BFE
330
18
100
AcDbEntity
  8
5MM
 62
     7
100
AcDbLine
 10
-814.1234184484358
 20
28.80244084143919
 30
0.0
 11
-682.7865593481511
 21
28.71898170623436
 31
0.0
  0
ARC
  5
BFF
330
18
100
AcDbEntity
  8
5MM
 62
     7
100
AcDbCircle
 10
-683.0185925424794
 20
316.544929092222
 30
0.0
 40
287.8260361082469
100
AcDbArc
 50
270.0448623361685
 51
296.8257774777721
  0
ARC
  5
C00
330
18
100
AcDbEntity
  8
5MM
 62
     7
100
AcDbCircle
 10
-468.3932665787661
 20
-95.33934236709678
 30
0.0
 40
176.6812917808152
100
AcDbArc
 50
105.2864527926059
 51
118.7094922125108
  0
LINE
  5
C02
330
18
100
AcDbEntity
  8
5MM
 62
     7
100
AcDbLine
 10
-617.9968225132741
 20
25.83762499317599
 30
0.0
 11
-617.9968225132753
 21
-38.28796978746607
 31
0.0
  0
LINE
  5
C03
330
18
100
AcDbEntity
  8
5MM
 62
     7
100
AcDbLine
 10
-602.9968225132741
 20
25.83762499317599
 30
0.0
 11
-617.9968225132741
 21
25.83762499317599
 31
0.0
  0
LINE
  5
C04
330
18
100
AcDbEntity
  8
5MM
 62
     7
100
AcDbLine
 10
-602.9968225132741
 20
30.83762499317599
 30
0.0
 11
-602.9968225132741
 21
25.83762499317599
 31
0.0
  0
LINE
  5
C05
330
18
100
AcDbEntity
  8
5MM
 62
     7
100
AcDbLine
 10
-587.3968225132742
 20
30.83762499317599
 30
0.0
 11
-602.9968225132741
 21
30.83762499317599
 31
0.0
  0
LINE
  5
C06
330
18
100
AcDbEntity
  8
5MM
 62
     7
100
AcDbLine
 10
-587.3968225132742
 20
30.83762499317599
 30
0.0
 11
-587.3968225132742
 21
25.83762499317599
 31
0.0
  0
LINE
  5
C07
330
18
100
AcDbEntity
  8
5MM
 62
     7
100
AcDbLine
 10
-571.8787787186604
 20
25.83762499317599
 30
0.0
 11
-587.3968225132742
 21
25.83762499317599
 31
0.0
  0
LINE
  5
C08
330
18
100
AcDbEntity
  8
5MM
 62
     7
100
AcDbLine
 10
-571.8787787186604
 20
25.83762499317599
 30
0.0
 11
-571.8787787186604
 21
20.83762499317599
 31
0.0
  0
LINE
  5
C09
330
18
100
AcDbEntity
  8
5MM
 62
     7
100
AcDbLine
 10
-569.4787787186604
 20
20.83762499317599
 30
0.0
 11
-571.8787787186604
 21
20.83762499317599
 31
0.0
  0
LINE
  5
C0A
330
18
100
AcDbEntity
  8
5MM
 62
     7
100
AcDbLine
 10
-569.4787787186604
 20
25.83762499317599
 30
0.0
 11
-569.4787787186604
 21
20.83762499317599
 31
0.0
  0
LINE
  5
C0B
330
18
100
AcDbEntity
  8
5MM
 62
     7
100
AcDbLine
 10
-569.4787787186604
 20
25.83762499317599
 30
0.0
 11
-554.0787787186598
 21
25.83762499317599
 31
0.0
  0
LINE
  5
C0C
330
18
100
AcDbEntity
  8
5MM
 62
     7
100
AcDbLine
 10
-554.0787787186598
 20
30.83762499317599
 30
0.0
 11
-554.0787787186598
 21
25.83762499317599
 31
0.0
  0
LINE
  5
C0D
330
18
100
AcDbEntity
  8
5MM
 62
     7
100
AcDbLine
 10
-554.0787787186598
 20
30.83762499317599
 30
0.0
 11
-538.4787787186599
 21
30.83762499317599
 31
0.0
  0
LINE
  5
C0E
330
18
100
AcDbEntity
  8
5MM
 62
     7
100
AcDbLine
 10
-538.4787787186599
 20
30.83762499317599
 30
0.0
 11
-538.4787787186599
 21
25.83762499317599
 31
0.0
  0
LINE
  5
C0F
330
18
100
AcDbEntity
  8
5MM
 62
     7
100
AcDbLine
 10
-538.4787787186599
 20
25.83762499317599
 30
0.0
 11
-523.4787787186599
 21
25.83762499317599
 31
0.0
  0
LINE
  5
C10
330
18
100
AcDbEntity
  8
5MM
 62
     7
100
AcDbLine
 10
-523.4787787186599
 20
25.83762499317599
 30
0.0
 11
-523.4787787186599
 21
-38.28796978746621
 31
0.0
  0
ARC
  5
C11
330
18
100
AcDbEntity
  8
5MM
 62
     7
100
AcDbCircle
 10
-526.0062249793118
 20
-175.1450582617322
 30
0.0
 40
136.8804246422897
100
AcDbArc
 50
88.94199456142562
 51
109.0742436771977
  0
ARC
  5
C12
330
18
100
AcDbEntity
  8
5MM
 62
     7
100
AcDbCircle
 10
-615.4693762526231
 20
-175.1450582617322
 30
0.0
 40
136.8804246422898
100
AcDbArc
 50
70.92575632280206
 51
91.05800543857455
  0
LINE
  5
C14
330
18
100
AcDbEntity
  8
5MM
 62
     7
100
AcDbLine
 10
-768.2906802559781
 20
18.25069126788063
 30
0.0
 11
-768.2906802559781
 21
-58.62930873211957
 31
0.0
  0
LINE
  5
C15
330
18
100
AcDbEntity
  8
5MM
 62
     7
100
AcDbLine
 10
-757.6906802559782
 20
18.25069126788063
 30
0.0
 11
-768.2906802559781
 21
18.25069126788063
 31
0.0
  0
LINE
  5
C16
330
18
100
AcDbEntity
  8
5MM
 62
     7
100
AcDbLine
 10
-757.6906802559782
 20
18.25069126788063
 30
0.0
 11
-757.6906802559782
 21
-28.62930873211957
 31
0.0
  0
LINE
  5
C17
330
18
100
AcDbEntity
  8
5MM
 62
     7
100
AcDbLine
 10
-757.6906802559782
 20
-28.62930873211957
 30
0.0
 11
-762.6906802559782
 21
-28.62930873211957
 31
0.0
  0
LINE
  5
C18
330
18
100
AcDbEntity
  8
5MM
 62
     7
100
AcDbLine
 10
-762.6906802559782
 20
-28.62930873211957
 30
0.0
 11
-762.6906802559782
 21
-33.02930873211957
 31
0.0
  0
LINE
  5
C19
330
18
100
AcDbEntity
  8
5MM
 62
     7
100
AcDbLine
 10
-667.6906802559778
 20
-33.02930873211957
 30
0.0
 11
-762.6906802559782
 21
-33.02930873211957
 31
0.0
  0
LINE
  5
C1A
330
18
100
AcDbEntity
  8
5MM
 62
     7
100
AcDbLine
 10
-672.6906802559778
 20
18.25069126788063
 30
0.0
 11
-672.6906802559778
 21
-28.62930873211957
 31
0.0
  0
LINE
  5
C1B
330
18
100
AcDbEntity
  8
5MM
 62
     7
100
AcDbLine
 10
-667.6906802559778
 20
-28.62930873211957
 30
0.0
 11
-672.6906802559778
 21
-28.62930873211957
 31
0.0
  0
LINE
  5
C1C
330
18
100
AcDbEntity
  8
5MM
 62
     7
100
AcDbLine
 10
-667.6906802559778
 20
-28.62930873211957
 30
0.0
 11
-667.6906802559778
 21
-33.02930873211957
 31
0.0
  0
LINE
  5
C1D
330
18
100
AcDbEntity
  8
5MM
 62
     7
100
AcDbLine
 10
-662.0906802559779
 20
18.25069126788063
 30
0.0
 11
-672.6906802559778
 21
18.25069126788063
 31
0.0
  0
LINE
  5
C1E
330
18
100
AcDbEntity
  8
5MM
 62
     7
100
AcDbLine
 10
-662.0906802559779
 20
18.25069126788063
 30
0.0
 11
-662.0906802559779
 21
-58.62930873211957
 31
0.0
  0
LINE
  5
C1F
330
18
100
AcDbEntity
  8
5MM
 62
     7
100
AcDbLine
 10
-768.2906802559781
 20
-58.62930873211957
 30
0.0
 11
-662.0906802559779
 21
-58.62930873211957
 31
0.0
  0
LINE
  5
C20
330
18
100
AcDbEntity
  8
5MM
 62
     7
100
AcDbLine
 10
-738.4048538005422
 20
-66.0364406201002
 30
0.0
 11
-754.0048538005422
 21
-66.0364406201002
 31
0.0
  0
LINE
  5
C21
330
18
100
AcDbEntity
  8
5MM
 62
     7
100
AcDbLine
 10
-754.0048538005422
 20
-66.0364406201002
 30
0.0
 11
-754.0048538005422
 21
-71.0364406201002
 31
0.0
  0
LINE
  5
C22
330
18
100
AcDbEntity
  8
5MM
 62
     7
100
AcDbLine
 10
-738.4048538005422
 20
-66.0364406201002
 30
0.0
 11
-738.4048538005422
 21
-71.0364406201002
 31
0.0
  0
LINE
  5
C23
330
18
100
AcDbEntity
  8
5MM
 62
     7
100
AcDbLine
 10
-717.748130612848
 20
-71.0364406201002
 30
0.0
 11
-738.4048538005422
 21
-71.0364406201002
 31
0.0
  0
LINE
  5
C24
330
18
100
AcDbEntity
  8
5MM
 62
     7
100
AcDbLine
 10
-717.748130612848
 20
-71.0364406201002
 30
0.0
 11
-717.748130612848
 21
-76.0364406201002
 31
0.0
  0
LINE
  5
C25
330
18
100
AcDbEntity
  8
5MM
 62
     7
100
AcDbLine
 10
-715.3481306128479
 20
-71.0364406201002
 30
0.0
 11
-715.3481306128479
 21
-76.0364406201002
 31
0.0
  0
LINE
  5
C26
330
18
100
AcDbEntity
  8
5MM
 62
     7
100
AcDbLine
 10
-715.3481306128479
 20
-76.0364406201002
 30
0.0
 11
-717.748130612848
 21
-76.0364406201002
 31
0.0
  0
LINE
  5
C27
330
18
100
AcDbEntity
  8
5MM
 62
     7
100
AcDbLine
 10
-695.1481306128471
 20
-71.0364406201002
 30
0.0
 11
-715.3481306128479
 21
-71.0364406201002
 31
0.0
  0
LINE
  5
C28
330
18
100
AcDbEntity
  8
5MM
 62
     7
100
AcDbLine
 10
-695.1481306128471
 20
-66.0364406201002
 30
0.0
 11
-695.1481306128471
 21
-71.0364406201002
 31
0.0
  0
LINE
  5
C29
330
18
100
AcDbEntity
  8
5MM
 62
     7
100
AcDbLine
 10
-679.5481306128472
 20
-66.0364406201002
 30
0.0
 11
-695.1481306128471
 21
-66.0364406201002
 31
0.0
  0
LINE
  5
C2A
330
18
100
AcDbEntity
  8
5MM
 62
     7
100
AcDbLine
 10
-679.5481306128472
 20
-66.0364406201002
 30
0.0
 11
-679.5481306128472
 21
-71.0364406201002
 31
0.0
  0
LINE
  5
C2B
330
18
100
AcDbEntity
  8
5MM
 62
     7
100
AcDbLine
 10
-664.5481306128472
 20
-71.0364406201002
 30
0.0
 11
-679.5481306128472
 21
-71.0364406201002
 31
0.0
  0
LINE
  5
C2C
330
18
100
AcDbEntity
  8
5MM
 62
     7
100
AcDbLine
 10
-664.5481306128472
 20
-71.0364406201002
 30
0.0
 11
-664.5481306128472
 21
-142.9364406201004
 31
0.0
  0
LINE
  5
C2D
330
18
100
AcDbEntity
  8
5MM
 62
     7
100
AcDbLine
 10
-675.1481306128471
 20
-81.63644062010019
 30
0.0
 11
-675.1481306128471
 21
-112.9364406201004
 31
0.0
  0
LINE
  5
C2E
330
18
100
AcDbEntity
  8
5MM
 62
     7
100
AcDbLine
 10
-763.4048538005422
 20
-112.9364406201004
 30
0.0
 11
-758.4048538005422
 21
-112.9364406201004
 31
0.0
  0
LINE
  5
C2F
330
18
100
AcDbEntity
  8
5MM
 62
     7
100
AcDbLine
 10
-670.1481306128471
 20
-112.9364406201004
 30
0.0
 11
-670.1481306128471
 21
-117.3364406201004
 31
0.0
  0
LINE
  5
C30
330
18
100
AcDbEntity
  8
5MM
 62
     7
100
AcDbLine
 10
-670.1481306128471
 20
-117.3364406201004
 30
0.0
 11
-763.4048538005422
 21
-117.3364406201004
 31
0.0
  0
LINE
  5
C32
330
18
100
AcDbEntity
  8
5MM
 62
     7
100
AcDbLine
 10
-675.1481306128471
 20
-81.63644062010019
 30
0.0
 11
-758.4048538005422
 21
-81.63644062010019
 31
0.0
  0
LINE
  5
C33
330
18
100
AcDbEntity
  8
5MM
 62
     7
100
AcDbLine
 10
-758.4048538005422
 20
-81.63644062010019
 30
0.0
 11
-758.4048538005422
 21
-112.9364406201004
 31
0.0
  0
LINE
  5
C34
330
18
100
AcDbEntity
  8
5MM
 62
     7
100
AcDbLine
 10
-758.7048538005422
 20
-112.9364406201004
 30
0.0
 11
-763.4048538005422
 21
-112.9364406201004
 31
0.0
  0
LINE
  5
C35
330
18
100
AcDbEntity
  8
5MM
 62
     7
100
AcDbLine
 10
-763.4048538005422
 20
-112.9364406201004
 30
0.0
 11
-763.4048538005422
 21
-117.3364406201004
 31
0.0
  0
LINE
  5
C36
330
18
100
AcDbEntity
  8
5MM
 62
     7
100
AcDbLine
 10
-769.0048538005422
 20
-71.0364406201002
 30
0.0
 11
-769.0048538005422
 21
-142.9364406201004
 31
0.0
  0
LINE
  5
C37
330
18
100
AcDbEntity
  8
5MM
 62
     7
100
AcDbLine
 10
-754.0048538005422
 20
-71.0364406201002
 30
0.0
 11
-769.0048538005422
 21
-71.0364406201002
 31
0.0
  0
LINE
  5
C38
330
18
100
AcDbEntity
  8
5MM
 62
     7
100
AcDbLine
 10
-664.5481306128472
 20
-142.9364406201004
 30
0.0
 11
-769.0048538005422
 21
-142.9364406201004
 31
0.0
  0
LINE
  5
C3A
330
18
100
AcDbEntity
  8
5MM
 62
     7
100
AcDbLine
 10
-675.1481306128471
 20
-112.9364406201004
 30
0.0
 11
-670.1481306128471
 21
-112.9364406201004
 31
0.0
  0
LINE
  5
C57
330
18
100
AcDbEntity
  8
5MM
 62
     7
100
AcDbLine
 10
-979.2467559498266
 20
-60.81889520212444
 30
0.0
 11
-979.2467559498266
 21
-34.3463711806864
 31
0.0
  0
LINE
  5
C58
330
18
100
AcDbEntity
  8
MADERA
 62
     7
100
AcDbLine
 10
-974.2467559498266
 20
-60.81889520212444
 30
0.0
 11
-979.2467559498266
 21
-60.81889520212444
 31
0.0
  0
LINE
  5
C59
330
18
100
AcDbEntity
  8
5MM
 62
     7
100
AcDbLine
 10
-974.2467559498266
 20
-94.3463711806864
 30
0.0
 11
-974.2467559498266
 21
-60.81889520212444
 31
0.0
  0
LINE
  5
C5A
330
18
100
AcDbEntity
  8
5MM
 62
     7
100
AcDbLine
 10
-974.2467559498266
 20
-94.3463711806864
 30
0.0
 11
-979.2467559498266
 21
-94.3463711806864
 31
0.0
  0
LINE
  5
C5B
330
18
100
AcDbEntity
  8
5MM
 62
     7
100
AcDbLine
 10
-979.2467559498266
 20
-124.9463711806864
 30
0.0
 11
-979.2467559498266
 21
-94.3463711806864
 31
0.0
  0
LINE
  5
C5C
330
18
100
AcDbEntity
  8
5MM
 62
     7
100
AcDbLine
 10
-979.2467559498266
 20
-34.3463711806864
 30
0.0
 11
-974.2467559498266
 21
-34.3463711806864
 31
0.0
  0
LINE
  5
C5E
330
18
100
AcDbEntity
  8
5MM
 62
     7
100
AcDbLine
 10
-974.2467559498266
 20
-34.3463711806864
 30
0.0
 11
-974.2467559498266
 21
-29.3463711806864
 31
0.0
  0
LINE
  5
C5F
330
18
100
AcDbEntity
  8
5MM
 62
     7
100
AcDbLine
 10
-974.2467559498266
 20
-29.3463711806864
 30
0.0
 11
-823.6467559498267
 21
-29.3463711806864
 31
0.0
  0
LINE
  5
C60
330
18
100
AcDbEntity
  8
5MM
 62
     7
100
AcDbLine
 10
-823.6467559498267
 20
-29.3463711806864
 30
0.0
 11
-823.6467559498267
 21
-34.3463711806864
 31
0.0
  0
LINE
  5
C61
330
18
100
AcDbEntity
  8
5MM
 62
     7
100
AcDbLine
 10
-823.6467559498267
 20
-34.3463711806864
 30
0.0
 11
-773.5562724559014
 21
-34.3463711806864
 31
0.0
  0
LINE
  5
C63
330
18
100
AcDbEntity
  8
MADERA
 62
     7
100
AcDbLine
 10
-773.5562724559014
 20
-34.3463711806864
 30
0.0
 11
-780.6351192000666
 21
-60.89204647130349
 31
0.0
  0
LINE
  5
C65
330
18
100
AcDbEntity
  8
MADERA
 62
     7
100
AcDbLine
 10
-785.4582474223301
 20
-59.57355893446975
 30
0.0
 11
-780.6351192000666
 21
-60.89204647130349
 31
0.0
  0
LINE
  5
C66
330
18
100
AcDbEntity
  8
MADERA
 62
     7
100
AcDbLine
 10
-785.4582474223301
 20
-59.57355893446975
 30
0.0
 11
-794.4031961759146
 21
-93.1171167604113
 31
0.0
  0
LINE
  5
C67
330
18
100
AcDbEntity
  8
MADERA
 62
     7
100
AcDbLine
 10
-794.4031961759144
 20
-93.11711676041088
 30
0.0
 11
-789.5800679536504
 21
-94.4356042972449
 31
0.0
  0
LINE
  5
C68
330
18
100
AcDbEntity
  8
MADERA
 62
     7
100
AcDbLine
 10
-789.5800679536504
 20
-94.4356042972449
 30
0.0
 11
-797.7162724559014
 21
-124.9463711806864
 31
0.0
  0
LINE
  5
C69
330
18
100
AcDbEntity
  8
5MM
 62
     7
100
AcDbLine
 10
-797.7162724559014
 20
-124.9463711806864
 30
0.0
 11
-979.2467559498266
 21
-124.9463711806864
 31
0.0
  0
LINE
  5
C6B
330
18
100
AcDbEntity
  8
5MM
 62
     7
100
AcDbLine
 10
-1171.950852090589
 20
-124.9463711806864
 30
0.0
 11
-990.4203685966638
 21
-124.9463711806864
 31
0.0
  0
LINE
  5
C6C
330
18
100
AcDbEntity
  8
MADERA
 62
     7
100
AcDbLine
 10
-1180.08705659284
 20
-94.4356042972449
 30
0.0
 11
-1171.950852090589
 21
-124.9463711806864
 31
0.0
  0
LINE
  5
C6D
330
18
100
AcDbEntity
  8
MADERA
 62
     7
100
AcDbLine
 10
-1175.263928370576
 20
-93.11711676041088
 30
0.0
 11
-1180.08705659284
 21
-94.4356042972449
 31
0.0
  0
LINE
  5
C6E
330
18
100
AcDbEntity
  8
MADERA
 62
     7
100
AcDbLine
 10
-1184.20887712416
 20
-59.57355893446975
 30
0.0
 11
-1175.263928370576
 21
-93.1171167604113
 31
0.0
  0
LINE
  5
C6F
330
18
100
AcDbEntity
  8
MADERA
 62
     7
100
AcDbLine
 10
-1184.20887712416
 20
-59.57355893446975
 30
0.0
 11
-1189.032005346424
 21
-60.89204647130349
 31
0.0
  0
LINE
  5
C70
330
18
100
AcDbEntity
  8
5MM
 62
     7
100
AcDbLine
 10
-1146.020368596664
 20
-29.3463711806864
 30
0.0
 11
-1146.020368596664
 21
-34.3463711806864
 31
0.0
  0
LINE
  5
C71
330
18
100
AcDbEntity
  8
5MM
 62
     7
100
AcDbLine
 10
-995.4203685966638
 20
-29.3463711806864
 30
0.0
 11
-1146.020368596664
 21
-29.3463711806864
 31
0.0
  0
LINE
  5
C72
330
18
100
AcDbEntity
  8
5MM
 62
     7
100
AcDbLine
 10
-995.4203685966638
 20
-34.3463711806864
 30
0.0
 11
-995.4203685966638
 21
-29.3463711806864
 31
0.0
  0
LINE
  5
C73
330
18
100
AcDbEntity
  8
5MM
 62
     7
100
AcDbLine
 10
-990.4203685966638
 20
-34.3463711806864
 30
0.0
 11
-995.4203685966638
 21
-34.3463711806864
 31
0.0
  0
LINE
  5
C74
330
18
100
AcDbEntity
  8
5MM
 62
     7
100
AcDbLine
 10
-990.4203685966638
 20
-124.9463711806864
 30
0.0
 11
-990.4203685966638
 21
-94.3463711806864
 31
0.0
  0
LINE
  5
C75
330
18
100
AcDbEntity
  8
5MM
 62
     7
100
AcDbLine
 10
-995.4203685966638
 20
-94.3463711806864
 30
0.0
 11
-990.4203685966638
 21
-94.3463711806864
 31
0.0
  0
LINE
  5
C76
330
18
100
AcDbEntity
  8
5MM
 62
     7
100
AcDbLine
 10
-995.4203685966638
 20
-94.3463711806864
 30
0.0
 11
-995.4203685966638
 21
-60.81889520212444
 31
0.0
  0
LINE
  5
C77
330
18
100
AcDbEntity
  8
MADERA
 62
     7
100
AcDbLine
 10
-995.4203685966638
 20
-60.81889520212444
 30
0.0
 11
-990.4203685966638
 21
-60.81889520212444
 31
0.0
  0
LINE
  5
C78
330
18
100
AcDbEntity
  8
5MM
 62
     7
100
AcDbLine
 10
-990.4203685966638
 20
-60.81889520212444
 30
0.0
 11
-990.4203685966638
 21
-34.3463711806864
 31
0.0
  0
LINE
  5
C79
330
18
100
AcDbEntity
  8
MADERA
 62
     7
100
AcDbLine
 10
-1196.110852090589
 20
-34.3463711806864
 30
0.0
 11
-1189.032005346424
 21
-60.89204647130349
 31
0.0
  0
LINE
  5
C7A
330
18
100
AcDbEntity
  8
5MM
 62
     7
100
AcDbLine
 10
-1146.020368596664
 20
-34.3463711806864
 30
0.0
 11
-1196.110852090589
 21
-34.3463711806864
 31
0.0
  0
LINE
  5
C7C
330
18
100
AcDbEntity
  8
MADERA
 62
     7
100
AcDbLine
 10
-540.1783360499985
 20
-51.47926199627835
 30
0.0
 11
-645.7783360499984
 21
-51.47926199627835
 31
0.0
  0
LINE
  5
C7D
330
18
100
AcDbEntity
  8
MADERA
 62
     7
100
AcDbLine
 10
-540.1783360499985
 20
-81.47926199627835
 30
0.0
 11
-540.1783360499985
 21
-51.47926199627835
 31
0.0
  0
LINE
  5
C7E
330
18
100
AcDbEntity
  8
MADERA
 62
     7
100
AcDbLine
 10
-535.1783360499985
 20
-81.47926199627835
 30
0.0
 11
-540.1783360499985
 21
-81.47926199627835
 31
0.0
  0
LINE
  5
C7F
330
18
100
AcDbEntity
  8
MADERA
 62
     7
100
AcDbLine
 10
-535.1783360499985
 20
-116.0792619962784
 30
0.0
 11
-535.1783360499985
 21
-81.47926199627835
 31
0.0
  0
LINE
  5
C80
330
18
100
AcDbEntity
  8
MADERA
 62
     7
100
AcDbLine
 10
-540.1783360499985
 20
-116.0792619962784
 30
0.0
 11
-535.1783360499985
 21
-116.0792619962784
 31
0.0
  0
LINE
  5
C81
330
18
100
AcDbEntity
  8
MADERA
 62
     7
100
AcDbLine
 10
-540.1783360499985
 20
-141.4292619962784
 30
0.0
 11
-540.1783360499985
 21
-116.0792619962784
 31
0.0
  0
LINE
  5
C83
330
18
100
AcDbEntity
  8
MADERA
 62
     7
100
AcDbLine
 10
-630.1783360499985
 20
-130.4792619962784
 30
0.0
 11
-555.7783360499984
 21
-130.4792619962784
 31
0.0
  0
LINE
  5
C84
330
18
100
AcDbEntity
  8
MADERA
 62
     7
100
AcDbLine
 10
-555.7783360499984
 20
-130.4792619962784
 30
0.0
 11
-555.7783360499984
 21
-67.07926199627835
 31
0.0
  0
LINE
  5
C85
330
18
100
AcDbEntity
  8
MADERA
 62
     7
100
AcDbLine
 10
-555.7783360499984
 20
-67.07926199627835
 30
0.0
 11
-630.1783360499985
 21
-67.07926199627835
 31
0.0
  0
LINE
  5
C86
330
18
100
AcDbEntity
  8
MADERA
 62
     7
100
AcDbLine
 10
-630.1783360499985
 20
-67.07926199627835
 30
0.0
 11
-630.1783360499985
 21
-130.4792619962784
 31
0.0
  0
LINE
  5
C87
330
18
100
AcDbEntity
  8
MADERA
 62
     7
100
AcDbLine
 10
-645.7783360499984
 20
-51.47926199627835
 30
0.0
 11
-645.7783360499984
 21
-81.47926199627835
 31
0.0
  0
LINE
  5
C88
330
18
100
AcDbEntity
  8
MADERA
 62
     7
100
AcDbLine
 10
-645.7783360499984
 20
-81.47926199627835
 30
0.0
 11
-650.7783360499984
 21
-81.47926199627835
 31
0.0
  0
LINE
  5
C89
330
18
100
AcDbEntity
  8
MADERA
 62
     7
100
AcDbLine
 10
-650.7783360499984
 20
-81.47926199627835
 30
0.0
 11
-650.7783360499984
 21
-116.0792619962784
 31
0.0
  0
LINE
  5
C8A
330
18
100
AcDbEntity
  8
MADERA
 62
     7
100
AcDbLine
 10
-650.7783360499984
 20
-116.0792619962784
 30
0.0
 11
-645.7783360499984
 21
-116.0792619962784
 31
0.0
  0
LINE
  5
C8B
330
18
100
AcDbEntity
  8
MADERA
 62
     7
100
AcDbLine
 10
-645.7783360499984
 20
-116.0792619962784
 30
0.0
 11
-645.7783360499984
 21
-141.4292619962784
 31
0.0
  0
LINE
  5
C8C
330
18
100
AcDbEntity
  8
5MM
 62
     7
100
AcDbLine
 10
-1229.290466424364
 20
-141.2853184417919
 30
0.0
 11
-1263.747288709761
 21
-141.2853184417919
 31
0.0
  0
LINE
  5
C8D
330
18
100
AcDbEntity
  8
MADERA
 62
     7
100
AcDbLine
 10
-1229.290466424364
 20
-145.5853184417919
 30
0.0
 11
-1229.290466424364
 21
-141.2853184417919
 31
0.0
  0
LINE
  5
C8E
330
18
100
AcDbEntity
  8
5MM
 62
     7
100
AcDbLine
 10
-1229.290466424364
 20
-145.5853184417919
 30
0.0
 11
-1263.371087456598
 21
-145.5853184417919
 31
0.0
  0
LINE
  5
C96
330
18
100
AcDbEntity
  8
5MM
 62
     7
100
AcDbLine
 10
-1253.395242720245
 20
16.01933234139097
 30
0.0
 11
-1253.395242720245
 21
-10.62562827047077
 31
0.0
  0
LINE
  5
C97
330
18
100
AcDbEntity
  8
5MM
 62
     7
100
AcDbLine
 10
-1238.395242720245
 20
16.01933234139097
 30
0.0
 11
-1253.395242720245
 21
16.01933234139097
 31
0.0
  0
LINE
  5
C98
330
18
100
AcDbEntity
  8
5MM
 62
     7
100
AcDbLine
 10
-1238.395242720245
 20
21.01933234139097
 30
0.0
 11
-1238.395242720245
 21
16.01933234139097
 31
0.0
  0
LINE
  5
C99
330
18
100
AcDbEntity
  8
5MM
 62
     7
100
AcDbLine
 10
-1222.795242720245
 20
21.01933234139097
 30
0.0
 11
-1238.395242720245
 21
21.01933234139097
 31
0.0
  0
LINE
  5
C9A
330
18
100
AcDbEntity
  8
5MM
 62
     7
100
AcDbLine
 10
-1222.795242720245
 20
21.01933234139097
 30
0.0
 11
-1222.795242720245
 21
16.01933234139097
 31
0.0
  0
LINE
  5
C9B
330
18
100
AcDbEntity
  8
5MM
 62
     7
100
AcDbLine
 10
-1219.403509173784
 20
16.01933234139097
 30
0.0
 11
-1222.795242720245
 21
16.01933234139097
 31
0.0
  0
LINE
  5
C9C
330
18
100
AcDbEntity
  8
5MM
 62
     7
100
AcDbLine
 10
-1219.403509173784
 20
16.01933234139097
 30
0.0
 11
-1219.403509173784
 21
11.01933234139097
 31
0.0
  0
LINE
  5
C9D
330
18
100
AcDbEntity
  8
5MM
 62
     7
100
AcDbLine
 10
-1217.003509173784
 20
11.01933234139097
 30
0.0
 11
-1219.403509173784
 21
11.01933234139097
 31
0.0
  0
LINE
  5
C9E
330
18
100
AcDbEntity
  8
5MM
 62
     7
100
AcDbLine
 10
-1217.003509173784
 20
16.01933234139097
 30
0.0
 11
-1217.003509173784
 21
11.01933234139097
 31
0.0
  0
LINE
  5
C9F
330
18
100
AcDbEntity
  8
5MM
 62
     7
100
AcDbLine
 10
-1217.003509173784
 20
16.01933234139097
 30
0.0
 11
-1213.803509173784
 21
16.01933234139097
 31
0.0
  0
LINE
  5
CA0
330
18
100
AcDbEntity
  8
5MM
 62
     7
100
AcDbLine
 10
-1213.803509173784
 20
21.01933234139097
 30
0.0
 11
-1213.803509173784
 21
16.01933234139097
 31
0.0
  0
LINE
  5
CA1
330
18
100
AcDbEntity
  8
5MM
 62
     7
100
AcDbLine
 10
-1213.803509173784
 20
21.01933234139097
 30
0.0
 11
-1198.203509173784
 21
21.01933234139097
 31
0.0
  0
LINE
  5
CA2
330
18
100
AcDbEntity
  8
5MM
 62
     7
100
AcDbLine
 10
-1198.203509173784
 20
21.01933234139097
 30
0.0
 11
-1198.203509173784
 21
16.01933234139097
 31
0.0
  0
LINE
  5
CA3
330
18
100
AcDbEntity
  8
5MM
 62
     7
100
AcDbLine
 10
-1198.203509173784
 20
16.01933234139097
 30
0.0
 11
-1183.203509173784
 21
16.01933234139097
 31
0.0
  0
LINE
  5
CA4
330
18
100
AcDbEntity
  8
5MM
 62
     7
100
AcDbLine
 10
-1183.203509173784
 20
16.01933234139097
 30
0.0
 11
-1183.203509173784
 21
-10.62562827047077
 31
0.0
  0
LINE
  5
CA5
330
18
100
AcDbEntity
  8
5MM
 62
     7
100
AcDbLine
 10
-1218.299375947015
 20
-13.6961187497443
 30
0.0
 11
-1183.203509173784
 21
-10.62562827047077
 31
0.0
  0
LINE
  5
CA6
330
18
100
AcDbEntity
  8
5MM
 62
     7
100
AcDbLine
 10
-1218.299375947015
 20
-13.6961187497443
 30
0.0
 11
-1253.395242720245
 21
-10.62562827047077
 31
0.0
  0
LINE
  5
CA7
330
18
100
AcDbEntity
  8
5MM
 62
     7
100
AcDbLine
 10
-1156.130337883852
 20
-292.8087643161754
 30
0.0
 11
-1070.135450823015
 21
-292.8087643161754
 31
0.0
  0
LINE
  5
CA8
330
18
100
AcDbEntity
  8
5MM
 62
     7
100
AcDbLine
 10
-1156.130337883852
 20
-292.8087643161754
 30
0.0
 11
-1156.130337883852
 21
-324.0887643161751
 31
0.0
  0
LINE
  5
CA9
330
18
100
AcDbEntity
  8
5MM
 62
     7
100
AcDbLine
 10
-1156.130337883852
 20
-324.0887643161751
 30
0.0
 11
-1161.130337883852
 21
-324.0887643161751
 31
0.0
  0
LINE
  5
CAA
330
18
100
AcDbEntity
  8
5MM
 62
     7
100
AcDbLine
 10
-1161.130337883852
 20
-324.0887643161751
 30
0.0
 11
-1161.130337883852
 21
-328.4887643161751
 31
0.0
  0
LINE
  5
CAB
330
18
100
AcDbEntity
  8
5MM
 62
     7
100
AcDbLine
 10
-1065.135450823015
 20
-328.4887643161751
 30
0.0
 11
-1161.130337883852
 21
-328.4887643161751
 31
0.0
  0
LINE
  5
CAC
330
18
100
AcDbEntity
  8
5MM
 62
     7
100
AcDbLine
 10
-1065.135450823015
 20
-324.0887643161751
 30
0.0
 11
-1065.135450823015
 21
-328.4887643161751
 31
0.0
  0
LINE
  5
CAD
330
18
100
AcDbEntity
  8
5MM
 62
     7
100
AcDbLine
 10
-1070.135450823015
 20
-324.0887643161751
 30
0.0
 11
-1065.135450823015
 21
-324.0887643161751
 31
0.0
  0
LINE
  5
CAE
330
18
100
AcDbEntity
  8
5MM
 62
     7
100
AcDbLine
 10
-1070.135450823015
 20
-292.8087643161754
 30
0.0
 11
-1070.135450823015
 21
-324.0887643161751
 31
0.0
  0
LINE
  5
CAF
330
18
100
AcDbEntity
  8
5MM
 62
     7
100
AcDbLine
 10
-1059.535450823015
 20
-282.2087643161753
 30
0.0
 11
-1059.535450823015
 21
-354.0887643161751
 31
0.0
  0
LINE
  5
CB0
330
18
100
AcDbEntity
  8
5MM
 62
     7
100
AcDbLine
 10
-1074.535450823015
 20
-282.2087643161753
 30
0.0
 11
-1059.535450823015
 21
-282.2087643161753
 31
0.0
  0
LINE
  5
CB1
330
18
100
AcDbEntity
  8
5MM
 62
     7
100
AcDbLine
 10
-1074.535450823015
 20
-277.2087643161753
 30
0.0
 11
-1074.535450823015
 21
-282.2087643161753
 31
0.0
  0
LINE
  5
CB2
330
18
100
AcDbEntity
  8
5MM
 62
     7
100
AcDbLine
 10
-1090.135450823015
 20
-277.2087643161753
 30
0.0
 11
-1074.535450823015
 21
-277.2087643161753
 31
0.0
  0
LINE
  5
CB3
330
18
100
AcDbEntity
  8
5MM
 62
     7
100
AcDbLine
 10
-1090.135450823015
 20
-277.2087643161753
 30
0.0
 11
-1090.135450823015
 21
-282.2087643161753
 31
0.0
  0
LINE
  5
CB4
330
18
100
AcDbEntity
  8
5MM
 62
     7
100
AcDbLine
 10
-1112.035450823014
 20
-282.2087643161753
 30
0.0
 11
-1090.135450823015
 21
-282.2087643161753
 31
0.0
  0
LINE
  5
CB5
330
18
100
AcDbEntity
  8
5MM
 62
     7
100
AcDbLine
 10
-1112.035450823014
 20
-282.2087643161753
 30
0.0
 11
-1112.035450823014
 21
-287.2087643161753
 31
0.0
  0
LINE
  5
CB6
330
18
100
AcDbEntity
  8
5MM
 62
     7
100
AcDbLine
 10
-1112.035450823014
 20
-287.2087643161753
 30
0.0
 11
-1114.435450823014
 21
-287.2087643161753
 31
0.0
  0
LINE
  5
CB7
330
18
100
AcDbEntity
  8
5MM
 62
     7
100
AcDbLine
 10
-1114.435450823014
 20
-282.2087643161753
 30
0.0
 11
-1114.435450823014
 21
-287.2087643161753
 31
0.0
  0
LINE
  5
CB8
330
18
100
AcDbEntity
  8
5MM
 62
     7
100
AcDbLine
 10
-1114.435450823014
 20
-282.2087643161753
 30
0.0
 11
-1136.130337883852
 21
-282.2087643161753
 31
0.0
  0
LINE
  5
CB9
330
18
100
AcDbEntity
  8
5MM
 62
     7
100
AcDbLine
 10
-1136.130337883852
 20
-277.2087643161753
 30
0.0
 11
-1136.130337883852
 21
-282.2087643161753
 31
0.0
  0
LINE
  5
CBA
330
18
100
AcDbEntity
  8
5MM
 62
     7
100
AcDbLine
 10
-1136.130337883852
 20
-277.2087643161753
 30
0.0
 11
-1151.730337883852
 21
-277.2087643161753
 31
0.0
  0
LINE
  5
CBB
330
18
100
AcDbEntity
  8
5MM
 62
     7
100
AcDbLine
 10
-1151.730337883852
 20
-277.2087643161753
 30
0.0
 11
-1151.730337883852
 21
-282.2087643161753
 31
0.0
  0
LINE
  5
CBC
330
18
100
AcDbEntity
  8
5MM
 62
     7
100
AcDbLine
 10
-1151.730337883852
 20
-282.2087643161753
 30
0.0
 11
-1166.730337883852
 21
-282.2087643161753
 31
0.0
  0
LINE
  5
CBD
330
18
100
AcDbEntity
  8
5MM
 62
     7
100
AcDbLine
 10
-1166.730337883852
 20
-282.2087643161753
 30
0.0
 11
-1166.730337883852
 21
-354.0887643161751
 31
0.0
  0
LINE
  5
CBE
330
18
100
AcDbEntity
  8
5MM
 62
     7
100
AcDbLine
 10
-1113.030337883852
 20
-354.0887643161751
 30
0.0
 11
-1166.730337883852
 21
-354.0887643161751
 31
0.0
  0
LINE
  5
CBF
330
18
100
AcDbEntity
  8
5MM
 62
     7
100
AcDbLine
 10
-1113.235450823014
 20
-354.0887643161751
 30
0.0
 11
-1059.535450823015
 21
-354.0887643161751
 31
0.0
  0
LINE
  5
CC0
330
18
100
AcDbEntity
  8
5MM
 62
     7
100
AcDbLine
 10
-1276.810620444522
 20
-384.3492558559977
 30
0.0
 11
-1276.810620444522
 21
-431.4773019190133
 31
0.0
  0
LINE
  5
CC1
330
18
100
AcDbEntity
  8
5MM
 62
     7
100
AcDbLine
 10
-1261.810620444522
 20
-384.3492558559977
 30
0.0
 11
-1276.810620444522
 21
-384.3492558559977
 31
0.0
  0
LINE
  5
CC2
330
18
100
AcDbEntity
  8
5MM
 62
     7
100
AcDbLine
 10
-1261.810620444522
 20
-379.3492558559977
 30
0.0
 11
-1261.810620444522
 21
-384.3492558559977
 31
0.0
  0
LINE
  5
CC3
330
18
100
AcDbEntity
  8
5MM
 62
     7
100
AcDbLine
 10
-1246.210620444522
 20
-379.3492558559977
 30
0.0
 11
-1261.810620444522
 21
-379.3492558559977
 31
0.0
  0
LINE
  5
CC4
330
18
100
AcDbEntity
  8
5MM
 62
     7
100
AcDbLine
 10
-1246.210620444522
 20
-379.3492558559977
 30
0.0
 11
-1246.210620444522
 21
-384.3492558559977
 31
0.0
  0
LINE
  5
CC5
330
18
100
AcDbEntity
  8
5MM
 62
     7
100
AcDbLine
 10
-1226.737323887963
 20
-384.3492558559977
 30
0.0
 11
-1246.210620444522
 21
-384.3492558559977
 31
0.0
  0
LINE
  5
CC6
330
18
100
AcDbEntity
  8
5MM
 62
     7
100
AcDbLine
 10
-1226.737323887963
 20
-384.3492558559977
 30
0.0
 11
-1226.73927053595
 21
-389.3492558559977
 31
0.0
  0
LINE
  5
CC7
330
18
100
AcDbEntity
  8
5MM
 62
     7
100
AcDbLine
 10
-1226.740325967919
 20
-389.3492558559977
 30
0.0
 11
-1224.340023334821
 21
-389.3492558559977
 31
0.0
  0
LINE
  5
CC8
330
18
100
AcDbEntity
  8
5MM
 62
     7
100
AcDbLine
 10
-1224.350891084122
 20
-384.3492558559977
 30
0.0
 11
-1224.340023334821
 21
-389.3492558559977
 31
0.0
  0
LINE
  5
CC9
330
18
100
AcDbEntity
  8
5MM
 62
     7
100
AcDbLine
 10
-1224.350891084122
 20
-384.3492558559977
 30
0.0
 11
-1204.579110582287
 21
-384.3492558559977
 31
0.0
  0
LINE
  5
CCA
330
18
100
AcDbEntity
  8
5MM
 62
     7
100
AcDbLine
 10
-1204.579110582287
 20
-379.3492558559977
 30
0.0
 11
-1204.579110582287
 21
-384.3492558559977
 31
0.0
  0
LINE
  5
CCB
330
18
100
AcDbEntity
  8
5MM
 62
     7
100
AcDbLine
 10
-1204.579110582287
 20
-379.3492558559977
 30
0.0
 11
-1188.979110582287
 21
-379.3492558559977
 31
0.0
  0
LINE
  5
CCC
330
18
100
AcDbEntity
  8
5MM
 62
     7
100
AcDbLine
 10
-1188.979110582287
 20
-379.3492558559977
 30
0.0
 11
-1188.979110582287
 21
-384.3492558559977
 31
0.0
  0
LINE
  5
CCD
330
18
100
AcDbEntity
  8
5MM
 62
     7
100
AcDbLine
 10
-1188.979110582287
 20
-384.3492558559977
 30
0.0
 11
-1173.979110582287
 21
-384.3492558559977
 31
0.0
  0
LINE
  5
CCE
330
18
100
AcDbEntity
  8
5MM
 62
     7
100
AcDbLine
 10
-1173.979110582287
 20
-384.3492558559977
 30
0.0
 11
-1173.979110582287
 21
-431.4773019190133
 31
0.0
  0
LINE
  5
CCF
330
18
100
AcDbEntity
  8
5MM
 62
     7
100
AcDbLine
 10
-1225.36871879058
 20
-435.9733100602774
 30
0.0
 11
-1173.979110582287
 21
-431.4773019190133
 31
0.0
  0
LINE
  5
CD0
330
18
100
AcDbEntity
  8
5MM
 62
     7
100
AcDbLine
 10
-1225.421012236229
 20
-435.9733100602774
 30
0.0
 11
-1276.810620444522
 21
-431.4773019190133
 31
0.0
  0
LINE
  5
CD3
330
18
100
AcDbEntity
  8
5MM
 62
     7
100
AcDbLine
 10
-1179.270025872891
 20
-278.2745585836855
 30
0.0
 11
-1184.387971280233
 21
-305.2859371224348
 31
0.0
  0
LINE
  5
CD4
330
18
100
AcDbEntity
  8
MADERA
 62
     7
100
AcDbLine
 10
-1184.387971280233
 20
-305.2859371224348
 30
0.0
 11
-1179.299011963712
 21
-305.285937122435
 31
0.0
  0
LINE
  5
CD5
330
18
100
AcDbEntity
  8
5MM
 62
     7
100
AcDbLine
 10
-1179.299011963712
 20
-305.285937122435
 30
0.0
 11
-1185.757908661633
 21
-339.3745585836853
 31
0.0
  0
LINE
  5
CD6
330
18
100
AcDbEntity
  8
5MM
 62
     7
100
AcDbLine
 10
-1185.757908661633
 20
-339.3745585836853
 30
0.0
 11
-1190.846867978154
 21
-339.3745585836853
 31
0.0
  0
LINE
  5
CD7
330
18
100
AcDbEntity
  8
5MM
 62
     7
100
AcDbLine
 10
-1190.846867978154
 20
-339.3745585836855
 30
0.0
 11
-1196.625815346575
 21
-369.8745585836855
 31
0.0
  0
LINE
  5
CD9
330
18
100
AcDbEntity
  8
5MM
 62
     7
100
AcDbLine
 10
-1261.607016780348
 20
-339.3745585836855
 30
0.0
 11
-1255.828069411927
 21
-369.8745585836855
 31
0.0
  0
LINE
  5
CDA
330
18
100
AcDbEntity
  8
5MM
 62
     7
100
AcDbLine
 10
-1261.607016780348
 20
-339.3745585836853
 30
0.0
 11
-1266.695976096869
 21
-339.3745585836853
 31
0.0
  0
LINE
  5
CDB
330
18
100
AcDbEntity
  8
5MM
 62
     7
100
AcDbLine
 10
-1273.15487279479
 20
-305.2859371224345
 30
0.0
 11
-1266.695976096869
 21
-339.3745585836853
 31
0.0
  0
LINE
  5
CDC
330
18
100
AcDbEntity
  8
MADERA
 62
     7
100
AcDbLine
 10
-1273.15487279479
 20
-305.2859371224345
 30
0.0
 11
-1268.065913478268
 21
-305.2859371224348
 31
0.0
  0
LINE
  5
CDD
330
18
100
AcDbEntity
  8
5MM
 62
     7
100
AcDbLine
 10
-1273.18385888561
 20
-278.2745585836855
 30
0.0
 11
-1268.065913478268
 21
-305.2859371224348
 31
0.0
  0
LINE
  5
CDE
330
18
100
AcDbEntity
  8
5MM
 62
     7
100
AcDbLine
 10
-1050.766476814
 20
-446.6926510714136
 30
0.0
 11
-1104.277385216689
 21
-451.3742489316221
 31
0.0
  0
LINE
  5
CDF
330
18
100
AcDbEntity
  8
5MM
 62
     7
100
AcDbLine
 10
-1050.766476814
 20
-446.6926510714136
 30
0.0
 11
-997.9705684113105
 21
-451.3116945372014
 31
0.0
  0
LINE
  5
CE0
330
18
100
AcDbEntity
  8
5MM
 62
     7
100
AcDbLine
 10
-997.9705684113105
 20
-514.2499596387131
 30
0.0
 11
-997.9705684113105
 21
-451.3116945372014
 31
0.0
  0
LINE
  5
CE1
330
18
100
AcDbEntity
  8
5MM
 62
     7
100
AcDbLine
 10
-1008.57056841131
 20
-514.2499596387131
 30
0.0
 11
-997.9705684113105
 21
-514.2499596387131
 31
0.0
  0
LINE
  5
CE2
330
18
100
AcDbEntity
  8
5MM
 62
     7
100
AcDbLine
 10
-1008.57056841131
 20
-514.2499596387131
 30
0.0
 11
-1008.57056841131
 21
-467.3814596387131
 31
0.0
  0
LINE
  5
CE3
330
18
100
AcDbEntity
  8
5MM
 62
     7
100
AcDbLine
 10
-1008.57056841131
 20
-467.3814596387131
 30
0.0
 11
-1003.57056841131
 21
-467.3814596387131
 31
0.0
  0
LINE
  5
CE4
330
18
100
AcDbEntity
  8
5MM
 62
     7
100
AcDbLine
 10
-1003.57056841131
 20
-467.3814596387131
 30
0.0
 11
-1003.57056841131
 21
-462.981459638713
 31
0.0
  0
LINE
  5
CE5
330
18
100
AcDbEntity
  8
5MM
 62
     7
100
AcDbLine
 10
-1051.070568411311
 20
-462.9814596387121
 30
0.0
 11
-1003.57056841131
 21
-462.981459638713
 31
0.0
  0
LINE
  5
CE6
330
18
100
AcDbEntity
  8
5MM
 62
     7
100
AcDbLine
 10
-1050.462385216689
 20
-462.9814596387121
 30
0.0
 11
-1098.677385216689
 21
-462.9814596387121
 31
0.0
  0
LINE
  5
CE7
330
18
100
AcDbEntity
  8
5MM
 62
     7
100
AcDbLine
 10
-1098.677385216689
 20
-467.3814596387122
 30
0.0
 11
-1098.677385216689
 21
-462.9814596387121
 31
0.0
  0
LINE
  5
CE8
330
18
100
AcDbEntity
  8
5MM
 62
     7
100
AcDbLine
 10
-1093.677385216689
 20
-467.3814596387122
 30
0.0
 11
-1098.677385216689
 21
-467.3814596387122
 31
0.0
  0
LINE
  5
CE9
330
18
100
AcDbEntity
  8
5MM
 62
     7
100
AcDbLine
 10
-1093.677385216689
 20
-514.2499596387122
 30
0.0
 11
-1093.677385216689
 21
-467.3814596387122
 31
0.0
  0
LINE
  5
CEA
330
18
100
AcDbEntity
  8
5MM
 62
     7
100
AcDbLine
 10
-1093.677385216689
 20
-514.2499596387122
 30
0.0
 11
-1104.277385216689
 21
-514.2499596387122
 31
0.0
  0
LINE
  5
CEB
330
18
100
AcDbEntity
  8
5MM
 62
     7
100
AcDbLine
 10
-1104.277385216689
 20
-514.2499596387122
 30
0.0
 11
-1104.277385216689
 21
-451.3742489316221
 31
0.0
  0
LINE
  5
CEF
330
18
100
AcDbEntity
  8
5MM
 62
     7
100
AcDbLine
 10
-1154.504688500754
 20
21.96340162659332
 30
0.0
 11
-1169.504688500754
 21
21.96340162659332
 31
0.0
  0
LINE
  5
CF0
330
18
100
AcDbEntity
  8
5MM
 62
     7
100
AcDbLine
 10
-1154.504688500754
 20
26.96340162659332
 30
0.0
 11
-1154.504688500754
 21
21.96340162659332
 31
0.0
  0
LINE
  5
CF1
330
18
100
AcDbEntity
  8
5MM
 62
     7
100
AcDbLine
 10
-1143.904688500754
 20
26.96340162659332
 30
0.0
 11
-1154.504688500754
 21
26.96340162659332
 31
0.0
  0
LINE
  5
CF2
330
18
100
AcDbEntity
  8
5MM
 62
     7
100
AcDbLine
 10
-1143.904688500754
 20
26.96340162659332
 30
0.0
 11
-1143.904688500754
 21
21.96340162659332
 31
0.0
  0
LINE
  5
CF3
330
18
100
AcDbEntity
  8
5MM
 62
     7
100
AcDbLine
 10
-1140.251352365827
 20
21.96340162659332
 30
0.0
 11
-1143.904688500754
 21
21.96340162659332
 31
0.0
  0
LINE
  5
CF4
330
18
100
AcDbEntity
  8
5MM
 62
     7
100
AcDbLine
 10
-1140.251352365827
 20
21.96340162659332
 30
0.0
 11
-1140.251352365827
 21
16.96340162659332
 31
0.0
  0
LINE
  5
CF5
330
18
100
AcDbEntity
  8
5MM
 62
     7
100
AcDbLine
 10
-1137.851352365827
 20
16.96340162659332
 30
0.0
 11
-1140.251352365827
 21
16.96340162659332
 31
0.0
  0
LINE
  5
CF6
330
18
100
AcDbEntity
  8
5MM
 62
     7
100
AcDbLine
 10
-1137.851352365827
 20
21.96340162659332
 30
0.0
 11
-1137.851352365827
 21
16.96340162659332
 31
0.0
  0
LINE
  5
CF7
330
18
100
AcDbEntity
  8
5MM
 62
     7
100
AcDbLine
 10
-1137.851352365827
 20
21.96340162659332
 30
0.0
 11
-1134.551352365827
 21
21.96340162659332
 31
0.0
  0
LINE
  5
CF8
330
18
100
AcDbEntity
  8
5MM
 62
     7
100
AcDbLine
 10
-1134.551352365827
 20
26.96340162659332
 30
0.0
 11
-1134.551352365827
 21
21.96340162659332
 31
0.0
  0
LINE
  5
CF9
330
18
100
AcDbEntity
  8
5MM
 62
     7
100
AcDbLine
 10
-1123.951352365827
 20
26.96340162659332
 30
0.0
 11
-1134.551352365827
 21
26.96340162659332
 31
0.0
  0
LINE
  5
CFA
330
18
100
AcDbEntity
  8
5MM
 62
     7
100
AcDbLine
 10
-1123.951352365827
 20
26.96340162659332
 30
0.0
 11
-1123.951352365827
 21
21.96340162659332
 31
0.0
  0
LINE
  5
CFB
330
18
100
AcDbEntity
  8
5MM
 62
     7
100
AcDbLine
 10
-1123.951352365827
 20
21.96340162659332
 30
0.0
 11
-1108.951352365827
 21
21.96340162659332
 31
0.0
  0
LINE
  5
CFC
330
18
100
AcDbEntity
  8
5MM
 62
     7
100
AcDbLine
 10
-1108.951352365827
 20
21.96340162659332
 30
0.0
 11
-1108.951352365827
 21
-4.682602677272442
 31
0.0
  0
LINE
  5
CFD
330
18
100
AcDbEntity
  8
5MM
 62
     7
100
AcDbLine
 10
-1169.504688500754
 20
21.96340162659332
 30
0.0
 11
-1169.504688500754
 21
-4.682602677272897
 31
0.0
  0
ARC
  5
CFE
330
18
100
AcDbEntity
  8
5MM
 62
     7
100
AcDbCircle
 10
-1171.235981530267
 20
-43.68619687165399
 30
0.0
 40
39.04199963672454
100
AcDbArc
 50
34.93181396632161
 51
87.45842109600528
  0
ARC
  5
CFF
330
18
100
AcDbEntity
  8
5MM
 62
     7
100
AcDbCircle
 10
-1107.220059336313
 20
-43.68619687165399
 30
0.0
 40
39.04199963672504
100
AcDbArc
 50
92.54157890399588
 51
145.0681860336785
  0
LINE
  5
D02
330
18
100
AcDbEntity
  8
5MM
 62
     7
100
AcDbLine
 10
-829.1872093886096
 20
7.831991024546113
 30
0.0
 11
-829.1872093886096
 21
-9.420066897939506
 31
0.0
  0
LINE
  5
D03
330
18
100
AcDbEntity
  8
5MM
 62
     7
100
AcDbLine
 10
-819.1872093886096
 20
7.831991024546113
 30
0.0
 11
-829.1872093886096
 21
7.831991024546113
 31
0.0
  0
LINE
  5
D04
330
18
100
AcDbEntity
  8
5MM
 62
     7
100
AcDbLine
 10
-819.1872093886096
 20
12.83199102454611
 30
0.0
 11
-819.1872093886096
 21
7.831991024546113
 31
0.0
  0
LINE
  5
D05
330
18
100
AcDbEntity
  8
5MM
 62
     7
100
AcDbLine
 10
-813.0705706824207
 20
12.83199102454611
 30
0.0
 11
-819.1872093886096
 21
12.83199102454611
 31
0.0
  0
LINE
  5
D06
330
18
100
AcDbEntity
  8
5MM
 62
     7
100
AcDbLine
 10
-813.0705706824207
 20
12.83199102454611
 30
0.0
 11
-813.0705706824207
 21
2.831991024546113
 31
0.0
  0
LINE
  5
D07
330
18
100
AcDbEntity
  8
5MM
 62
     7
100
AcDbLine
 10
-810.6705706824206
 20
2.831991024546113
 30
0.0
 11
-813.0705706824207
 21
2.831991024546113
 31
0.0
  0
LINE
  5
D08
330
18
100
AcDbEntity
  8
5MM
 62
     7
100
AcDbLine
 10
-810.6705706824206
 20
12.83199102454611
 30
0.0
 11
-810.6705706824206
 21
2.831991024546113
 31
0.0
  0
LINE
  5
D09
330
18
100
AcDbEntity
  8
5MM
 62
     7
100
AcDbLine
 10
-810.6705706824206
 20
12.83199102454611
 30
0.0
 11
-804.7705706824214
 21
12.83199102454611
 31
0.0
  0
LINE
  5
D0A
330
18
100
AcDbEntity
  8
5MM
 62
     7
100
AcDbLine
 10
-804.7705706824214
 20
12.83199102454611
 30
0.0
 11
-804.7705706824214
 21
7.831991024546113
 31
0.0
  0
LINE
  5
D0B
330
18
100
AcDbEntity
  8
5MM
 62
     7
100
AcDbLine
 10
-804.7705706824214
 20
7.831991024546113
 30
0.0
 11
-794.7705706824214
 21
7.831991024546113
 31
0.0
  0
LINE
  5
D0C
330
18
100
AcDbEntity
  8
5MM
 62
     7
100
AcDbLine
 10
-794.7705706824214
 20
7.831991024546113
 30
0.0
 11
-794.7705706824214
 21
-9.420066897939506
 31
0.0
  0
LINE
  5
D0D
330
18
100
AcDbEntity
  8
5MM
 62
     7
100
AcDbLine
 10
-811.9527433126904
 20
-10.92331221783368
 30
0.0
 11
-794.7705706824214
 21
-9.420066897939506
 31
0.0
  0
LINE
  5
D0E
330
18
100
AcDbEntity
  8
5MM
 62
     7
100
AcDbLine
 10
-811.9527433126904
 20
-10.92331221783368
 30
0.0
 11
-829.1872093886096
 21
-9.420066897939506
 31
0.0
  0
LINE
  5
D16
330
18
100
AcDbEntity
  8
5MM
 62
     7
100
AcDbLine
 10
-1164.501851868961
 20
-823.1520054028875
 30
0.0
 11
-1269.684442772075
 21
-823.1241936295369
 31
0.0
  0
ARC
  5
D17
330
18
100
AcDbEntity
  8
5MM
 62
     7
100
AcDbCircle
 10
-2737.276358125832
 20
-760.9552929282171
 30
0.0
 40
1574.003836899454
100
AcDbArc
 50
357.7353694556568
 51
0.875381439127762
  0
LINE
  5
D18
330
18
100
AcDbEntity
  8
5MM
 62
     7
100
AcDbLine
 10
-1168.410345843559
 20
-736.9063036527472
 30
0.0
 11
-1168.410345843559
 21
-727.4501090002515
 31
0.0
  0
LINE
  5
D19
330
18
100
AcDbEntity
  8
5MM
 62
     7
100
AcDbLine
 10
-1163.456224436783
 20
-736.9081440497254
 30
0.0
 11
-1168.410345843559
 21
-736.9063036527472
 31
0.0
  0
LINE
  5
D1A
330
18
100
AcDbEntity
  8
5MM
 62
     7
100
AcDbLine
 10
-1163.410345843559
 20
-727.4501090002515
 30
0.0
 11
-1168.410345843559
 21
-727.4501090002515
 31
0.0
  0
LINE
  5
D1B
330
18
100
AcDbEntity
  8
5MM
 62
     7
100
AcDbLine
 10
-1163.410345843559
 20
-727.4501090002515
 30
0.0
 11
-1163.410345843559
 21
-671.3501090002516
 31
0.0
  0
LINE
  5
D1C
330
18
100
AcDbEntity
  8
5MM
 62
     7
100
AcDbLine
 10
-1265.810345843559
 20
-736.8552356522163
 30
0.0
 11
-1265.810345843559
 21
-727.4501090002515
 31
0.0
  0
LINE
  5
D1D
330
18
100
AcDbEntity
  8
5MM
 62
     7
100
AcDbLine
 10
-1265.810345843559
 20
-736.8552356522163
 30
0.0
 11
-1270.727237037659
 21
-736.8531941242746
 31
0.0
  0
ARC
  5
D1E
330
18
100
AcDbEntity
  8
5MM
 62
     7
100
AcDbCircle
 10
304.438917954134
 20
-760.9552929282185
 30
0.0
 40
1575.350540990285
100
AcDbArc
 50
179.1233681755869
 51
182.2616812894585
  0
LINE
  5
D1F
330
18
100
AcDbEntity
  8
5MM
 62
     7
100
AcDbLine
 10
-1265.810345843559
 20
-727.4501090002515
 30
0.0
 11
-1270.810345843559
 21
-727.4501090002515
 31
0.0
  0
LINE
  5
D20
330
18
100
AcDbEntity
  8
5MM
 62
     7
100
AcDbLine
 10
-1270.810345843559
 20
-727.4501090002515
 30
0.0
 11
-1270.810345843559
 21
-671.3501090002516
 31
0.0
  0
LINE
  5
D21
330
18
100
AcDbEntity
  8
5MM
 62
     7
100
AcDbLine
 10
-1265.812435307512
 20
-671.3501090002516
 30
0.0
 11
-1270.810345843559
 21
-671.3501090002516
 31
0.0
  0
LINE
  5
D22
330
18
100
AcDbEntity
  8
5MM
 62
     7
100
AcDbLine
 10
-1265.812435307512
 20
-671.3501090002516
 30
0.0
 11
-1265.84139689554
 21
-666.9501090002515
 31
0.0
  0
LINE
  5
D23
330
18
100
AcDbEntity
  8
5MM
 62
     7
100
AcDbLine
 10
-1265.84139689554
 20
-666.9501090002515
 30
0.0
 11
-1270.839662353882
 21
-666.9501090002515
 31
0.0
  0
ARC
  5
D24
330
18
100
AcDbEntity
  8
5MM
 62
     7
100
AcDbCircle
 10
-231.3516674996042
 20
-649.3591976131041
 30
0.0
 40
1039.636826785968
100
AcDbArc
 50
177.6014552865186
 51
180.9695049776309
  0
LINE
  5
D25
330
18
100
AcDbEntity
  8
5MM
 62
     7
100
AcDbLine
 10
-1265.073256008724
 20
-605.8501090002515
 30
0.0
 11
-1270.077661598951
 21
-605.8501090002515
 31
0.0
  0
ARC
  5
D26
330
18
100
AcDbEntity
  8
5MM
 62
     7
100
AcDbCircle
 10
-231.3516674996042
 20
-649.3591976131041
 30
0.0
 40
1034.636826785968
100
AcDbArc
 50
177.3459571418533
 51
177.5898572216212
  0
LINE
  5
D27
330
18
100
AcDbEntity
  8
5MM
 62
     7
100
AcDbLine
 10
-1264.878678549642
 20
-601.4501090002516
 30
0.0
 11
-1269.884021756265
 21
-601.4501090002516
 31
0.0
  0
ARC
  5
D28
330
18
100
AcDbEntity
  8
5MM
 62
     7
100
AcDbCircle
 10
-231.3516674996042
 20
-649.3591976131041
 30
0.0
 40
1039.636826785968
100
AcDbArc
 50
173.9812999868461
 51
177.3587304920549
  0
ARC
  5
D29
330
18
100
AcDbEntity
  8
5MM
 62
     7
100
AcDbCircle
 10
-2202.869024187514
 20
-649.3591976131037
 30
0.0
 40
1034.636826785968
100
AcDbArc
 50
2.410142778378512
 51
2.6540428581466
  0
LINE
  5
D2A
330
18
100
AcDbEntity
  8
5MM
 62
     7
100
AcDbLine
 10
-1164.336669930853
 20
-601.4501090002514
 30
0.0
 11
-1169.342013137477
 21
-601.450109000254
 31
0.0
  0
ARC
  5
D2B
330
18
100
AcDbEntity
  8
5MM
 62
     7
100
AcDbCircle
 10
-2202.869024187514
 20
-649.3591976131037
 30
0.0
 40
1039.636826785968
100
AcDbArc
 50
2.641269507945062
 51
6.018700013153874
  0
ARC
  5
D2C
330
18
100
AcDbEntity
  8
5MM
 62
     7
100
AcDbCircle
 10
-2202.869024187514
 20
-649.3591976131037
 30
0.0
 40
1039.636826785968
100
AcDbArc
 50
359.030495022369
 51
2.398544713481005
  0
LINE
  5
D2D
330
18
100
AcDbEntity
  8
5MM
 62
     7
100
AcDbLine
 10
-1164.143030088168
 20
-605.8501090002569
 30
0.0
 11
-1169.147435678394
 21
-605.8501090002555
 31
0.0
  0
LINE
  5
D2E
330
18
100
AcDbEntity
  8
5MM
 62
     7
100
AcDbLine
 10
-1163.381029333237
 20
-666.9501090002515
 30
0.0
 11
-1168.379294791579
 21
-666.9501090002515
 31
0.0
  0
LINE
  5
D2F
330
18
100
AcDbEntity
  8
5MM
 62
     7
100
AcDbLine
 10
-1168.408256379607
 20
-671.3501090002516
 30
0.0
 11
-1168.379294791579
 21
-666.9501090002515
 31
0.0
  0
LINE
  5
D30
330
18
100
AcDbEntity
  8
5MM
 62
     7
100
AcDbLine
 10
-1163.410345843559
 20
-671.3501090002516
 30
0.0
 11
-1168.408256379607
 21
-671.3501090002516
 31
0.0
  0
LINE
  5
D31
330
18
100
AcDbEntity
  8
5MM
 62
     7
100
AcDbLine
 10
-1168.962959687749
 20
-540.3501090002515
 30
0.0
 11
-1265.257731999369
 21
-540.3501090002515
 31
0.0
  0
LINE
  5
D3A
330
18
100
AcDbEntity
  8
MADERA
 62
     7
100
AcDbLine
 10
-986.1774419593021
 20
-271.4924995327427
 30
0.0
 11
-986.1774419593021
 21
-831.4924995327432
 31
0.0
  0
LINE
  5
D3B
330
18
100
AcDbEntity
  8
MADERA
 62
     7
100
AcDbLine
 10
-690.1774419593021
 20
-271.4924995327427
 30
0.0
 11
-690.1774419593021
 21
-831.4924995327432
 31
0.0
  0
LINE
  5
D3C
330
18
100
AcDbEntity
  8
5MM
 62
     7
100
AcDbLine
 10
-997.6853940707704
 20
-658.3241527367338
 30
0.0
 11
-1051.886256093187
 21
-658.3253561356896
 31
0.0
  0
LINE
  5
D3D
330
18
100
AcDbEntity
  8
5MM
 62
     7
100
AcDbLine
 10
-1051.886256093187
 20
-658.3253561356896
 30
0.0
 11
-1051.886256093187
 21
-653.9253561346052
 31
0.0
  0
LINE
  5
D3E
330
18
100
AcDbEntity
  8
5MM
 62
     7
100
AcDbLine
 10
-997.6853945547252
 20
-653.92415273566
 30
0.0
 11
-1051.886256093187
 21
-653.9253561346052
 31
0.0
  0
LINE
  5
D3F
330
18
100
AcDbEntity
  8
5MM
 62
     7
100
AcDbLine
 10
-997.6853940707704
 20
-658.3241527367338
 30
0.0
 11
-1041.566256093187
 21
-821.1241544908685
 31
0.0
  0
LINE
  5
D40
330
18
100
AcDbEntity
  8
5MM
 62
     7
100
AcDbLine
 10
-997.6853945547252
 20
-653.92415273566
 30
0.0
 11
-1041.566256093187
 21
-491.1251269638565
 31
0.0
  0
LINE
  5
D41
330
18
100
AcDbEntity
  8
5MM
 62
     7
100
AcDbLine
 10
-1086.566256093187
 20
-821.1241544908685
 30
0.0
 11
-1086.566256093187
 21
-491.1241544908685
 31
0.0
  0
LINE
  5
D42
330
18
100
AcDbEntity
  8
5MM
 62
     7
100
AcDbLine
 10
-1086.566256093187
 20
-821.1241544908685
 30
0.0
 11
-1041.566256093187
 21
-821.1241544908685
 31
0.0
  0
LINE
  5
D43
330
18
100
AcDbEntity
  8
5MM
 62
     7
100
AcDbLine
 10
-1041.566256093187
 20
-491.1251269638565
 30
0.0
 11
-1086.566256093187
 21
-491.1261260799406
 31
0.0
  0
LINE
  5
D45
330
18
100
AcDbEntity
  8
5MM
 62
     7
100
AcDbLine
 10
-1086.212903657982
 20
-134.3006534197412
 30
0.0
 11
-1086.190613958144
 21
-191.800649099474
 31
0.0
  0
LINE
  5
D46
330
18
100
AcDbEntity
  8
5MM
 62
     7
100
AcDbLine
 10
-780.1906369494801
 20
-191.6820291316462
 30
0.0
 11
-1086.190613958144
 21
-191.800649099474
 31
0.0
  0
LINE
  5
D47
330
18
100
AcDbEntity
  8
5MM
 62
     7
100
AcDbLine
 10
-1086.212903657982
 20
-134.3006534197412
 30
0.0
 11
-780.2129266493167
 21
-134.182033451913
 31
0.0
  0
TEXT
  5
D4F
330
18
100
AcDbEntity
  8
0
100
AcDbText
 10
-1260.154865802291
 20
604.7428944399323
 30
0.0
 40
10.0
  1
1B
100
AcDbText
  0
TEXT
  5
D50
330
18
100
AcDbEntity
  8
0
100
AcDbText
 10
-1059.50272830189
 20
604.3113844668133
 30
0.0
 40
10.0
  1
3B
100
AcDbText
  0
TEXT
  5
D52
330
18
100
AcDbEntity
  8
0
100
AcDbText
 10
-1207.510649081756
 20
605.1744044130515
 30
0.0
 40
10.0
  1
2B
100
AcDbText
  0
TEXT
  5
D53
330
18
100
AcDbEntity
  8
0
100
AcDbText
 10
-847.4449209641414
 20
272.4070004928441
 30
0.0
 40
10.0
  1
1F
100
AcDbText
  0
TEXT
  5
D54
330
18
100
AcDbEntity
  8
0
100
AcDbText
 10
-1206.801509013681
 20
202.8206091653322
 30
0.0
 40
10.0
  1
2F
100
AcDbText
  0
TEXT
  5
D55
330
18
100
AcDbEntity
  8
0
100
AcDbText
 10
-1018.814392143835
 20
179.971346341373
 30
0.0
 40
10.0
  1
3F
100
AcDbText
  0
TEXT
  5
D56
330
18
100
AcDbEntity
  8
0
100
AcDbText
 10
-547.288695685769
 20
186.20296347518
 30
0.0
 40
10.0
  1
4F
100
AcDbText
  0
TEXT
  5
D57
330
18
100
AcDbEntity
  8
0
100
AcDbText
 10
-442.3898072666838
 20
-104.6058361024818
 30
0.0
 40
10.0
  1
21F
100
AcDbText
  0
TEXT
  5
D58
330
18
100
AcDbEntity
  8
0
100
AcDbText
 10
-746.7004439675942
 20
137.3886292603582
 30
0.0
 40
10.0
  1
7F
100
AcDbText
  0
TEXT
  5
D59
330
18
100
AcDbEntity
  8
0
100
AcDbText
 10
-901.4522694571357
 20
72.99525221101885
 30
0.0
 40
10.0
  1
6F
100
AcDbText
  0
TEXT
  5
D5A
330
18
100
AcDbEntity
  8
0
100
AcDbText
 10
-1242.114006105254
 20
146.7360549610688
 30
0.0
 40
10.0
  1
5F
100
AcDbText
  0
TEXT
  5
D5B
330
18
100
AcDbEntity
  8
0
100
AcDbText
 10
-1210.955920436219
 20
45.99157796452167
 30
0.0
 40
10.0
  1
8F
100
AcDbText
  0
TEXT
  5
D5C
330
18
100
AcDbEntity
  8
0
100
AcDbText
 10
-1225.496360415102
 20
-6.977167672838164
 30
0.0
 40
10.0
  1
9F
100
AcDbText
  0
TEXT
  5
D5D
330
18
100
AcDbEntity
  8
0
100
AcDbText
 10
-1140.330926253072
 20
0.2930523166033936
 30
0.0
 40
10.0
  1
10F
100
AcDbText
  0
TEXT
  5
D5E
330
18
100
AcDbEntity
  8
0
100
AcDbText
 10
-1052.049683524139
 20
5.486066594775878
 30
0.0
 40
10.0
  1
11F
100
AcDbText
  0
TEXT
  5
D5F
330
18
100
AcDbEntity
  8
0
100
AcDbText
 10
-914.9541065803843
 20
5.486066594775878
 30
0.0
 40
10.0
  1
12F
100
AcDbText
  0
TEXT
  5
D60
330
18
100
AcDbEntity
  8
0
100
AcDbText
 10
-742.5460325450562
 20
-51.63709046512196
 30
0.0
 40
10.0
  1
14F
100
AcDbText
  0
TEXT
  5
D61
330
18
100
AcDbEntity
  8
0
100
AcDbText
 10
-585.7170013442457
 20
-14.24738766227972
 30
0.0
 40
10.0
  1
15F
100
AcDbText
  0
TEXT
  5
D62
330
18
100
AcDbEntity
  8
0
100
AcDbText
 10
-551.973360411579
 20
-105.7101502108454
 30
0.0
 40
6.0
  1
19F
100
AcDbText
  0
TEXT
  5
D63
330
18
100
AcDbEntity
  8
0
100
AcDbText
 10
-635.1462326461527
 20
-190.5754014106846
 30
0.0
 40
10.0
  1
22F
100
AcDbText
  0
TEXT
  5
D64
330
18
100
AcDbEntity
  8
0
100
AcDbText
 10
-682.3070669182548
 20
-175.2308302856283
 30
0.0
 40
10.0
  1
23F
100
AcDbText
  0
TEXT
  5
D65
330
18
100
AcDbEntity
  8
0
100
AcDbText
 10
-908.7224894465772
 20
-165.8834045849177
 30
0.0
 40
10.0
  1
24F
100
AcDbText
  0
TEXT
  5
D66
330
18
100
AcDbEntity
  8
0
100
AcDbText
 10
-879.6416094888111
 20
-100.4514246799438
 30
0.0
 40
10.0
  1
17F
100
AcDbText
  0
TEXT
  5
D67
330
18
100
AcDbEntity
  8
0
100
AcDbText
 10
-1079.053357770636
 20
-97.33561611304026
 30
0.0
 40
10.0
  1
16F
100
AcDbText
  0
TEXT
  5
D68
330
18
100
AcDbEntity
  8
0
100
AcDbText
 10
-1215.110331858757
 20
-187.6940645532424
 30
0.0
 40
10.0
  1
25F
100
AcDbText
  0
TEXT
  5
D69
330
18
100
AcDbEntity
  8
0
100
AcDbText
 10
-818.5867291406237
 20
-7.848754427786289
 30
0.0
 40
7.0
  1
13F
100
AcDbText
  0
TEXT
  5
D6A
330
18
100
AcDbEntity
  8
0
100
AcDbText
 10
-722.7848194771285
 20
-137.2613114395137
 30
0.0
 40
6.0
  1
20F
100
AcDbText
  0
TEXT
  5
D6B
330
18
100
AcDbEntity
  8
0
100
AcDbText
 10
229.8512545834908
 20
224.544976284693
 30
0.0
 40
10.0
  1
26F
100
AcDbText
  0
TEXT
  5
D6C
330
18
100
AcDbEntity
  8
0
100
AcDbText
 10
-91.01521534706717
 20
7.800738318355826
 30
0.0
 40
10.0
  1
27F
100
AcDbText
  0
TEXT
  5
D6D
330
18
100
AcDbEntity
  8
0
100
AcDbText
 10
132.1038531476918
 20
14.17556884677751
 30
0.0
 40
10.0
  1
28F
100
AcDbText
  0
TEXT
  5
D6E
330
18
100
AcDbEntity
  8
0
100
AcDbText
 10
299.9743903961291
 20
9.92568182782972
 30
0.0
 40
10.0
  1
29F
100
AcDbText
  0
TEXT
  5
D6F
330
18
100
AcDbEntity
  8
0
100
AcDbText
 10
484.8444757203579
 20
24.80028639414698
 30
0.0
 40
10.0
  1
30F
100
AcDbText
  0
TEXT
  5
D70
330
18
100
AcDbEntity
  8
0
100
AcDbText
 10
214.9766500171736
 20
-368.3142628585233
 30
0.0
 40
10.0
  1
31F
100
AcDbText
  0
TEXT
  5
D71
330
18
100
AcDbEntity
  8
0
100
AcDbText
 10
104.4795875245311
 20
-489.4360428985352
 30
0.0
 40
10.0
  1
32F
100
AcDbText
  0
TEXT
  5
D72
330
18
100
AcDbEntity
  8
0
100
AcDbText
 10
105.9119263791951
 20
-544.0903172940918
 30
0.0
 40
10.0
  1
33F
100
AcDbText
  0
TEXT
  5
D73
330
18
100
AcDbEntity
  8
0
100
AcDbText
 10
107.1188211388105
 20
-602.0212657556282
 30
0.0
 40
10.0
  1
34F
100
AcDbText
  0
TEXT
  5
D74
330
18
100
AcDbEntity
  8
0
100
AcDbText
 10
107.7222685186181
 20
-652.7108456594725
 30
0.0
 40
10.0
  1
35F
100
AcDbText
  0
TEXT
  5
D75
330
18
100
AcDbEntity
  8
0
100
AcDbText
 10
344.598204095081
 20
-525.5600825595914
 30
0.0
 40
10.0
  1
36F
100
AcDbText
  0
TEXT
  5
D76
330
18
100
AcDbEntity
  8
0
100
AcDbText
 10
467.3098690417144
 20
-533.3466435769916
 30
0.0
 40
10.0
  1
37F
100
AcDbText
  0
TEXT
  5
D77
330
18
100
AcDbEntity
  8
0
100
AcDbText
 10
544.6875170602796
 20
-532.4673521222352
 30
0.0
 40
10.0
  1
38F
100
AcDbText
  0
TEXT
  5
D78
330
18
100
AcDbEntity
  8
0
100
AcDbText
 10
392.5700953874185
 20
-593.1384625004282
 30
0.0
 40
10.0
  1
39F
100
AcDbText
  0
TEXT
  5
D79
330
18
100
AcDbEntity
  8
0
100
AcDbText
 10
418.9712269266672
 20
-650.9317496185511
 30
0.0
 40
10.0
  1
40F
100
AcDbText
  0
TEXT
  5
D7A
330
18
100
AcDbEntity
  8
0
100
AcDbText
 10
655.2132103145808
 20
-533.5120765139894
 30
0.0
 40
5.0
  1
42F
100
AcDbText
  0
TEXT
  5
D7B
330
18
100
AcDbEntity
  8
0
100
AcDbText
 10
646.3128026637162
 20
-457.4540474975102
 30
0.0
 40
5.0
  1
41F
100
AcDbText
  0
TEXT
  5
D7C
330
18
100
AcDbEntity
  8
0
100
AcDbText
 10
-1242.782957083286
 20
-327.6137060955128
 30
0.0
 40
10.0
  1
43F
100
AcDbText
  0
TEXT
  5
D7D
330
18
100
AcDbEntity
  8
0
100
AcDbText
 10
-1122.199716063646
 20
-347.7505127038147
 30
0.0
 40
10.0
  1
44F
100
AcDbText
  0
TEXT
  5
D7E
330
18
100
AcDbEntity
  8
0
100
AcDbText
 10
-1240.842965106703
 20
-418.7933289949153
 30
0.0
 40
10.0
  1
45F
100
AcDbText
  0
TEXT
  5
D7F
330
18
100
AcDbEntity
  8
0
100
AcDbText
 10
-1130.26342244147
 20
-381.9334814398377
 30
0.0
 40
10.0
  1
46F
100
AcDbText
  0
TEXT
  5
D80
330
18
100
AcDbEntity
  8
0
100
AcDbText
 10
-1112.803494652223
 20
-424.6133049246644
 30
0.0
 40
10.0
  1
47F
100
AcDbText
  0
TEXT
  5
D81
330
18
100
AcDbEntity
  8
0
100
AcDbText
 10
-1061.849855816713
 20
-631.6959552342286
 30
0.0
 40
10.0
  1
53F
100
AcDbText
  0
TEXT
  5
D82
330
18
100
AcDbEntity
  8
0
100
AcDbText
 10
-1056.192256192561
 20
-458.490300751999
 30
0.0
 40
7.0
  1
50F
100
AcDbText
  0
TEXT
  5
D83
330
18
100
AcDbEntity
  8
0
100
AcDbText
 10
-1235.022989176954
 20
-469.2331203860741
 30
0.0
 40
10.0
  1
48F
100
AcDbText
  0
TEXT
  5
D84
330
18
100
AcDbEntity
  8
0
100
AcDbText
 10
-1239.485838568546
 20
-500.945589547522
 30
0.0
 40
10.0
  1
49F
100
AcDbText
  0
TEXT
  5
D85
330
18
100
AcDbEntity
  8
0
100
AcDbText
 10
-1235.022989176954
 20
-647.7123822317129
 30
0.0
 40
10.0
  1
51F
100
AcDbText
  0
TEXT
  5
D86
330
18
100
AcDbEntity
  8
0
100
AcDbText
 10
-1143.843366277551
 20
-647.7123822317129
 30
0.0
 40
10.0
  1
52F
100
AcDbText
  0
LINE
  5
D8E
330
18
100
AcDbEntity
  8
5MM
 62
     7
100
AcDbLine
 10
-514.9594077741093
 20
108.8367156061824
 30
0.0
 11
-514.9744021074322
 21
134.2386985131465
 31
0.0
  0
LINE
  5
D8F
330
18
100
AcDbEntity
  8
5MM
 62
     7
100
AcDbLine
 10
-514.9594077741093
 20
100.4929097944736
 30
0.0
 11
-514.974402107432
 21
75.09092688750955
 31
0.0
  0
LINE
  5
D97
330
18
100
AcDbEntity
  8
5MM
 62
     7
100
AcDbLine
 10
-780.2129266493167
 20
-134.182033451913
 30
0.0
 11
-780.1906369494801
 21
-191.6820291316463
 31
0.0
  0
LINE
  5
D98
330
18
100
AcDbEntity
  8
5MM
 62
     7
100
AcDbLine
 10
-2022.907719558883
 20
819.1917533456835
 30
0.0
 11
-2080.407715238616
 21
819.169463645846
 31
0.0
  0
TEXT
  5
DA0
330
18
100
AcDbEntity
  8
0
100
AcDbText
 10
-717.937297301054
 20
856.9311840054559
 30
0.0
 40
10.0
  1
1 T
100
AcDbText
  0
LINE
  5
DA3
330
18
100
AcDbEntity
  8
5MM
 62
     7
100
AcDbLine
 10
-739.7225945424537
 20
881.0398326587043
 30
0.0
 11
-739.7225945424537
 21
849.3881806236288
 31
0.0
  0
LINE
  5
DA4
330
18
100
AcDbEntity
  8
5MM
 62
     7
100
AcDbLine
 10
-679.1692584075271
 20
881.0398326587043
 30
0.0
 11
-679.1692584075271
 21
849.3881806236294
 31
0.0
  0
LINE
  5
DB1
330
18
100
AcDbEntity
  8
5MM
 62
     7
100
AcDbLine
 10
-679.1692584075271
 20
881.0398326587043
 30
0.0
 11
-739.7225945424537
 21
881.0398326587043
 31
0.0
  0
ARC
  5
DB4
330
18
100
AcDbEntity
  8
5MM
 62
     7
100
AcDbCircle
 10
-677.437965378013
 20
815.390234160457
 30
0.0
 40
34.04199963672497
100
AcDbArc
 50
92.541578903996
 51
160.0934394511078
  0
ARC
  5
DB5
330
18
100
AcDbEntity
  8
5MM
 62
     7
100
AcDbCircle
 10
-741.4538875719667
 20
815.390234160457
 30
0.0
 40
34.04199963672435
100
AcDbArc
 50
19.90656054889251
 51
87.45842109600547
  0
LINE
  5
DB6
330
18
100
AcDbEntity
  8
0
100
AcDbLine
 10
-808.871872257446
 20
916.9916797293184
 30
0.0
 11
-617.3659745235399
 21
916.9916797293184
 31
0.0
  0
LINE
  5
DB7
330
18
100
AcDbEntity
  8
0
100
AcDbLine
 10
-617.3659745235399
 20
916.9916797293184
 30
0.0
 11
-617.3659745235399
 21
783.7701856535577
 31
0.0
  0
LINE
  5
DB8
330
18
100
AcDbEntity
  8
0
100
AcDbLine
 10
-617.3659745235399
 20
783.7701856535577
 30
0.0
 11
-808.871872257446
 21
783.7701856535577
 31
0.0
  0
LINE
  5
DB9
330
18
100
AcDbEntity
  8
0
100
AcDbLine
 10
-808.871872257446
 20
916.9916797293184
 30
0.0
 11
-808.871872257446
 21
783.7701856535577
 31
0.0
  0
TEXT
  5
DBA
330
18
100
AcDbEntity
  8
0
100
AcDbText
 10
-774.3770211128293
 20
748.0858568832648
 30
0.0
 40
10.0
  1
Telgopor 30 mm
100
AcDbText
  0
LINE
  5
DC2
330
18
100
AcDbEntity
  8
MADERA
 62
     7
100
AcDbLine
 10
-144.4328221463258
 20
577.0502729704704
 30
0.0
 11
-144.4328221463258
 21
1027.05027297047
 31
0.0
  0
LINE
  5
DD0
330
18
100
AcDbEntity
  8
MADERA
 62
     7
100
AcDbLine
 10
-645.7783360499984
 20
-141.4292619962784
 30
0.0
 11
-540.1783360499985
 21
-141.4292619962784
 31
0.0
  0
LINE
  5
DE6
330
18
100
AcDbEntity
  8
5MM
 62
     7
100
AcDbLine
 10
-1179.270025872891
 20
-278.2745585836855
 30
0.0
 11
-1273.18385888561
 21
-278.2745585836855
 31
0.0
  0
LINE
  5
DE7
330
18
100
AcDbEntity
  8
5MM
 62
     7
100
AcDbLine
 10
-1196.625815346575
 20
-369.8745585836855
 30
0.0
 11
-1255.828069411927
 21
-369.8745585836855
 31
0.0
  0
CIRCLE
  5
DE8
330
18
100
AcDbEntity
  8
ALAS
 62
     7
100
AcDbCircle
 10
-547.6446639456942
 20
-186.9029791404001
 30
0.0
 40
1.5
  0
CIRCLE
  5
DE9
330
18
100
AcDbEntity
  8
ALAS
 62
     7
100
AcDbCircle
 10
-583.1845349653281
 20
-186.9342486985572
 30
0.0
 40
1.5
  0
CIRCLE
  5
DEB
330
18
100
AcDbEntity
  8
ALAS
 62
     7
100
AcDbCircle
 10
-1220.598071257481
 20
-504.335846425199
 30
0.0
 40
1.5
  0
CIRCLE
  5
DEC
330
18
100
AcDbEntity
  8
ALAS
 62
     7
100
AcDbCircle
 10
-1256.137942277115
 20
-504.3045768670419
 30
0.0
 40
1.5
  0
LWPOLYLINE
  5
DED
330
18
100
AcDbEntity
  8
ALAS
  6
Continuous
 62
     7
100
AcDbPolyline
 90
        2
 70
     0
 43
0.0
 10
-1273.450630934535
 20
-521.8563395907554
 10
-1273.450630934535
 20
-486.7265167407563
  0
LWPOLYLINE
  5
DEE
330
18
100
AcDbEntity
  8
ALAS
  6
Continuous
 62
     7
100
AcDbPolyline
 90
       30
 70
     0
 43
0.0
 10
-1273.210015709535
 20
-522.0969548157559
 10
-1233.992528780374
 20
-521.4983476873117
 10
-1216.189907799831
 20
-520.7798715879221
 10
-1208.251357534899
 20
-520.3008579259908
 10
-1192.35034394213
 20
-518.8319912456141
 10
-1190.69194970194
 20
-518.624692085898
 10
-1180.351047704488
 20
-516.9514908659926
 10
-1172.127559687036
 20
-514.9506826332558
 10
-1166.882147782036
 20
-513.1220069232554
 10
-1163.21184019463
 20
-511.3247962256141
 10
-1162.262335462035
 20
-510.836162285756
 10
-1159.158399059535
 20
-508.6225022157555
 10
-1155.549170684536
 20
-504.7726586157555
 10
-1155.549170684536
 20
-504.0508129407558
 10
-1156.089568899593
 20
-503.3782736564322
 10
-1157.174309494477
 20
-502.0765847500793
 10
-1159.639629509536
 20
-499.4791236657561
 10
-1162.08279944944
 20
-497.8503436256137
 10
-1162.984181137036
 20
-497.2654635957556
 10
-1167.796485637035
 20
-495.0758650482562
 10
-1171.886944462035
 20
-493.6321736982559
 10
-1180.110432479488
 20
-491.6313654655191
 10
-1181.035875689583
 20
-491.4462770159921
 10
-1192.135641051941
 20
-489.7175490206141
 10
-1193.79403529213
 20
-489.5102498608981
 10
-1207.032336560785
 20
-488.3004232757607
 10
-1214.733878422939
 20
-487.8167525061485
 10
-1232.067892831261
 20
-487.0841924757947
 10
-1240.96449496281
 20
-486.8500714557172
 10
-1273.210015709535
 20
-486.4859015157558
  0
LINE
  5
DF7
330
18
100
AcDbEntity
  8
0
100
AcDbLine
 10
-150.606295402608
 20
-730.0881878042336
 30
0.0
 11
-135.606295402608
 21
-730.0881878042336
 31
0.0
  0
LINE
  5
DFA
330
18
100
AcDbEntity
  8
0
100
AcDbLine
 10
-150.606295402608
 20
-715.0881878042336
 30
0.0
 11
-150.606295402608
 21
-730.0881878042336
 31
0.0
  0
LINE
  5
DFB
330
18
100
AcDbEntity
  8
0
100
AcDbLine
 10
-135.606295402608
 20
-730.0881878042336
 30
0.0
 11
-150.606295402608
 21
-715.0881878042336
 31
0.0
  0
CIRCLE
  5
DFD
330
18
100
AcDbEntity
  8
0
100
AcDbCircle
 10
-146.856295402608
 20
-726.3381878042336
 30
0.0
 40
2.527107422504675
  0
CIRCLE
  5
DFE
330
18
100
AcDbEntity
  8
0
100
AcDbCircle
 10
-121.4641050324328
 20
-726.3381878042336
 30
0.0
 40
2.527107422504685
  0
LINE
  5
DFF
330
18
100
AcDbEntity
  8
0
100
AcDbLine
 10
-110.2141050324328
 20
-730.0881878042336
 30
0.0
 11
-125.2141050324328
 21
-715.0881878042336
 31
0.0
  0
LINE
  5
E00
330
18
100
AcDbEntity
  8
0
100
AcDbLine
 10
-125.2141050324328
 20
-715.0881878042336
 30
0.0
 11
-125.2141050324328
 21
-730.0881878042336
 31
0.0
  0
LINE
  5
E01
330
18
100
AcDbEntity
  8
0
100
AcDbLine
 10
-125.2141050324328
 20
-730.0881878042336
 30
0.0
 11
-110.2141050324328
 21
-730.0881878042336
 31
0.0
  0
CIRCLE
  5
E02
330
18
100
AcDbEntity
  8
0
100
AcDbCircle
 10
-93.34382809356111
 20
-726.3381878042336
 30
0.0
 40
2.527107422504685
  0
LINE
  5
E03
330
18
100
AcDbEntity
  8
0
100
AcDbLine
 10
-82.09382809356111
 20
-730.0881878042336
 30
0.0
 11
-97.09382809356111
 21
-715.0881878042336
 31
0.0
  0
LINE
  5
E04
330
18
100
AcDbEntity
  8
0
100
AcDbLine
 10
-97.09382809356111
 20
-715.0881878042336
 30
0.0
 11
-97.09382809356111
 21
-730.0881878042336
 31
0.0
  0
LINE
  5
E05
330
18
100
AcDbEntity
  8
0
100
AcDbLine
 10
-97.09382809356111
 20
-730.0881878042336
 30
0.0
 11
-82.09382809356111
 21
-730.0881878042336
 31
0.0
  0
CIRCLE
  5
E06
330
18
100
AcDbEntity
  8
0
100
AcDbCircle
 10
-63.96443427682951
 20
-726.3381878042336
 30
0.0
 40
2.527107422504685
  0
LINE
  5
E07
330
18
100
AcDbEntity
  8
0
100
AcDbLine
 10
-52.71443427682951
 20
-730.0881878042336
 30
0.0
 11
-67.71443427682951
 21
-715.0881878042336
 31
0.0
  0
LINE
  5
E08
330
18
100
AcDbEntity
  8
0
100
AcDbLine
 10
-67.71443427682951
 20
-715.0881878042336
 30
0.0
 11
-67.71443427682951
 21
-730.0881878042336
 31
0.0
  0
LINE
  5
E09
330
18
100
AcDbEntity
  8
0
100
AcDbLine
 10
-67.71443427682951
 20
-730.0881878042336
 30
0.0
 11
-52.71443427682951
 21
-730.0881878042336
 31
0.0
  0
CIRCLE
  5
E0A
330
18
100
AcDbEntity
  8
0
100
AcDbCircle
 10
-33.11607076926131
 20
-726.3381878042336
 30
0.0
 40
2.527107422504685
  0
LINE
  5
E0B
330
18
100
AcDbEntity
  8
0
100
AcDbLine
 10
-21.86607076926131
 20
-730.0881878042336
 30
0.0
 11
-36.86607076926131
 21
-715.0881878042336
 31
0.0
  0
LINE
  5
E0C
330
18
100
AcDbEntity
  8
0
100
AcDbLine
 10
-36.86607076926131
 20
-715.0881878042336
 30
0.0
 11
-36.86607076926131
 21
-730.0881878042336
 31
0.0
  0
LINE
  5
E0D
330
18
100
AcDbEntity
  8
0
100
AcDbLine
 10
-36.86607076926131
 20
-730.0881878042336
 30
0.0
 11
-21.86607076926131
 21
-730.0881878042336
 31
0.0
  0
LINE
  5
E0E
330
18
100
AcDbEntity
  8
0
100
AcDbLine
 10
1.158864443412156
 20
-730.0881878042336
 30
0.0
 11
16.15886444341216
 21
-730.0881878042336
 31
0.0
  0
LINE
  5
E0F
330
18
100
AcDbEntity
  8
0
100
AcDbLine
 10
1.158864443412156
 20
-715.0881878042336
 30
0.0
 11
1.158864443412156
 21
-730.0881878042336
 31
0.0
  0
LINE
  5
E10
330
18
100
AcDbEntity
  8
0
100
AcDbLine
 10
16.15886444341216
 20
-730.0881878042336
 30
0.0
 11
1.158864443412156
 21
-715.0881878042336
 31
0.0
  0
CIRCLE
  5
E11
330
18
100
AcDbEntity
  8
0
100
AcDbCircle
 10
4.908864443412156
 20
-726.3381878042336
 30
0.0
 40
2.527107422504685
  0
LINE
  5
E12
330
18
100
AcDbEntity
  8
0
100
AcDbLine
 10
43.18642441531442
 20
-730.0881878042336
 30
0.0
 11
58.18642441531442
 21
-730.0881878042336
 31
0.0
  0
LINE
  5
E13
330
18
100
AcDbEntity
  8
0
100
AcDbLine
 10
43.18642441531442
 20
-715.0881878042336
 30
0.0
 11
43.18642441531442
 21
-730.0881878042336
 31
0.0
  0
LINE
  5
E14
330
18
100
AcDbEntity
  8
0
100
AcDbLine
 10
58.18642441531442
 20
-730.0881878042336
 30
0.0
 11
43.18642441531442
 21
-715.0881878042336
 31
0.0
  0
CIRCLE
  5
E15
330
18
100
AcDbEntity
  8
0
100
AcDbCircle
 10
46.93642441531442
 20
-726.3381878042336
 30
0.0
 40
2.527107422504685
  0
LINE
  5
E16
330
18
100
AcDbEntity
  8
0
100
AcDbLine
 10
85.21398438721667
 20
-730.0881878042336
 30
0.0
 11
100.2139843872167
 21
-730.0881878042336
 31
0.0
  0
LINE
  5
E17
330
18
100
AcDbEntity
  8
0
100
AcDbLine
 10
85.21398438721667
 20
-715.0881878042336
 30
0.0
 11
85.21398438721667
 21
-730.0881878042336
 31
0.0
  0
LINE
  5
E18
330
18
100
AcDbEntity
  8
0
100
AcDbLine
 10
100.2139843872167
 20
-730.0881878042336
 30
0.0
 11
85.21398438721667
 21
-715.0881878042336
 31
0.0
  0
CIRCLE
  5
E19
330
18
100
AcDbEntity
  8
0
100
AcDbCircle
 10
88.96398438721667
 20
-726.3381878042336
 30
0.0
 40
2.527107422504685
  0
LINE
  5
E2D
330
18
100
AcDbEntity
  8
5MM
 62
     7
100
AcDbLine
 10
-2332.966667069981
 20
800.6973300744139
 30
0.0
 11
-2358.368649976945
 21
800.6823357410913
 31
0.0
  0
TEXT
  5
E2F
330
18
100
AcDbEntity
  8
0
100
AcDbText
 10
-2262.284859609784
 20
-170.2354981330213
 30
0.0
 40
7.0
  1
C10
 50
90.0
100
AcDbText
  0
TEXT
  5
E37
330
18
100
AcDbEntity
  8
0
100
AcDbText
 10
-2251.973224470433
 20
577.9440415163211
 30
0.0
 40
10.0
  1
C3
 50
90.0
100
AcDbText
  0
TEXT
  5
E38
330
18
100
AcDbEntity
  8
0
100
AcDbText
 10
-2226.310341857016
 20
218.3134703571018
 30
0.0
 40
10.0
  1
C6a
 50
90.0
100
AcDbText
  0
TEXT
  5
E3B
330
18
100
AcDbEntity
  8
0
100
AcDbText
 10
-2264.1842016908
 20
780.3875189275966
 30
0.0
 40
10.0
  1
C1
 50
90.0
100
AcDbText
  0
TEXT
  5
E3C
330
18
100
AcDbEntity
  8
0
100
AcDbText
 10
-2258.941640005612
 20
-101.0619004723194
 30
0.0
 40
10.0
  1
C9
 50
90.0
100
AcDbText
  0
TEXT
  5
E3E
330
18
100
AcDbEntity
  8
0
100
AcDbText
 10
-2262.135515247767
 20
-10.10552917285827
 30
0.0
 40
10.0
  1
C8
 50
90.0
100
AcDbText
  0
TEXT
  5
E40
330
18
100
AcDbEntity
  8
0
100
AcDbText
 10
-2361.518580724157
 20
568.9562938809295
 30
0.0
 40
10.0
  1
Lateral x 2
 50
90.0
100
AcDbText
  0
TEXT
  5
E42
330
18
100
AcDbEntity
  8
0
100
AcDbText
 10
-2259.93186197356
 20
685.3881508714885
 30
0.0
 40
10.0
  1
C2
 50
90.0
100
AcDbText
  0
TEXT
  5
E45
330
18
100
AcDbEntity
  8
0
100
AcDbText
 10
-2495.631697756207
 20
468.7974775746017
 30
0.0
 40
10.0
  1
Fondo Superior
 50
90.0
100
AcDbText
  0
LINE
  5
E49
330
18
100
AcDbEntity
  8
5MM
 62
     7
100
AcDbLine
 10
-2259.210301819736
 20
-163.6015123050879
 30
0.0
 11
-2260.71354713963
 21
-180.835978381007
 31
0.0
  0
LINE
  5
E4A
330
18
100
AcDbEntity
  8
5MM
 62
     7
100
AcDbLine
 10
-2259.210301819736
 20
-163.6015123050879
 30
0.0
 11
-2260.71354713963
 21
-146.4193396748192
 31
0.0
  0
LINE
  5
E4B
330
18
100
AcDbEntity
  8
5MM
 62
     7
100
AcDbLine
 10
-2277.965605062116
 20
-146.4193396748192
 30
0.0
 11
-2260.71354713963
 21
-146.4193396748192
 31
0.0
  0
LINE
  5
E4C
330
18
100
AcDbEntity
  8
5MM
 62
     7
100
AcDbLine
 10
-2277.965605062116
 20
-156.4193396748192
 30
0.0
 11
-2277.965605062116
 21
-146.4193396748192
 31
0.0
  0
LINE
  5
E4D
330
18
100
AcDbEntity
  8
5MM
 62
     7
100
AcDbLine
 10
-2282.965605062116
 20
-156.4193396748192
 30
0.0
 11
-2277.965605062116
 21
-156.4193396748192
 31
0.0
  0
LINE
  5
E4E
330
18
100
AcDbEntity
  8
5MM
 62
     7
100
AcDbLine
 10
-2282.965605062116
 20
-162.3193396748179
 30
0.0
 11
-2282.965605062116
 21
-156.4193396748192
 31
0.0
  0
LINE
  5
E4F
330
18
100
AcDbEntity
  8
5MM
 62
     7
100
AcDbLine
 10
-2282.965605062116
 20
-162.3193396748179
 30
0.0
 11
-2272.965605062116
 21
-162.3193396748179
 31
0.0
  0
LINE
  5
E50
330
18
100
AcDbEntity
  8
5MM
 62
     7
100
AcDbLine
 10
-2272.965605062116
 20
-162.3193396748179
 30
0.0
 11
-2272.965605062116
 21
-164.7193396748185
 31
0.0
  0
LINE
  5
E51
330
18
100
AcDbEntity
  8
5MM
 62
     7
100
AcDbLine
 10
-2282.965605062116
 20
-164.7193396748185
 30
0.0
 11
-2272.965605062116
 21
-164.7193396748185
 31
0.0
  0
LINE
  5
E52
330
18
100
AcDbEntity
  8
5MM
 62
     7
100
AcDbLine
 10
-2282.965605062116
 20
-164.7193396748185
 30
0.0
 11
-2282.965605062116
 21
-170.835978381007
 31
0.0
  0
LINE
  5
E53
330
18
100
AcDbEntity
  8
5MM
 62
     7
100
AcDbLine
 10
-2282.965605062116
 20
-170.835978381007
 30
0.0
 11
-2277.965605062116
 21
-170.835978381007
 31
0.0
  0
LINE
  5
E54
330
18
100
AcDbEntity
  8
5MM
 62
     7
100
AcDbLine
 10
-2277.965605062116
 20
-170.835978381007
 30
0.0
 11
-2277.965605062116
 21
-180.835978381007
 31
0.0
  0
LINE
  5
E55
330
18
100
AcDbEntity
  8
5MM
 62
     7
100
AcDbLine
 10
-2277.965605062116
 20
-180.835978381007
 30
0.0
 11
-2260.71354713963
 21
-180.835978381007
 31
0.0
  0
ARC
  5
E56
330
18
100
AcDbEntity
  8
5MM
 62
     7
100
AcDbCircle
 10
-2220.204952502543
 20
813.4983858443554
 30
0.0
 40
39.04199963672503
100
AcDbArc
 50
182.5415789039956
 51
235.0681860336782
  0
ARC
  5
E57
330
18
100
AcDbEntity
  8
5MM
 62
     7
100
AcDbCircle
 10
-2220.204952502543
 20
749.4824636504015
 30
0.0
 40
39.04199963672498
100
AcDbArc
 50
124.931813966322
 51
177.4584210960056
  0
LINE
  5
E58
330
18
100
AcDbEntity
  8
5MM
 62
     7
100
AcDbLine
 10
-2285.854551000791
 20
751.2137566799145
 30
0.0
 11
-2259.208546696925
 21
751.2137566799145
 31
0.0
  0
LINE
  5
E59
330
18
100
AcDbEntity
  8
5MM
 62
     7
100
AcDbLine
 10
-2285.854551000791
 20
811.7670928148416
 30
0.0
 11
-2259.208546696925
 21
811.7670928148416
 31
0.0
  0
LINE
  5
E5A
330
18
100
AcDbEntity
  8
5MM
 62
     7
100
AcDbLine
 10
-2285.854551000791
 20
796.7670928148416
 30
0.0
 11
-2285.854551000791
 21
811.7670928148416
 31
0.0
  0
LINE
  5
E5B
330
18
100
AcDbEntity
  8
5MM
 62
     7
100
AcDbLine
 10
-2290.854551000791
 20
796.7670928148416
 30
0.0
 11
-2285.854551000791
 21
796.7670928148416
 31
0.0
  0
LINE
  5
E5C
330
18
100
AcDbEntity
  8
5MM
 62
     7
100
AcDbLine
 10
-2290.854551000791
 20
796.7670928148416
 30
0.0
 11
-2290.854551000791
 21
786.1670928148412
 31
0.0
  0
LINE
  5
E5D
330
18
100
AcDbEntity
  8
5MM
 62
     7
100
AcDbLine
 10
-2290.854551000791
 20
786.1670928148412
 30
0.0
 11
-2285.854551000791
 21
786.1670928148412
 31
0.0
  0
LINE
  5
E5E
330
18
100
AcDbEntity
  8
5MM
 62
     7
100
AcDbLine
 10
-2285.854551000791
 20
782.867092814841
 30
0.0
 11
-2285.854551000791
 21
786.1670928148412
 31
0.0
  0
LINE
  5
E5F
330
18
100
AcDbEntity
  8
5MM
 62
     7
100
AcDbLine
 10
-2285.854551000791
 20
782.867092814841
 30
0.0
 11
-2280.854551000791
 21
782.867092814841
 31
0.0
  0
LINE
  5
E60
330
18
100
AcDbEntity
  8
5MM
 62
     7
100
AcDbLine
 10
-2280.854551000791
 20
782.867092814841
 30
0.0
 11
-2280.854551000791
 21
780.4670928148414
 31
0.0
  0
LINE
  5
E61
330
18
100
AcDbEntity
  8
5MM
 62
     7
100
AcDbLine
 10
-2285.854551000791
 20
780.4670928148414
 30
0.0
 11
-2280.854551000791
 21
780.4670928148414
 31
0.0
  0
LINE
  5
E62
330
18
100
AcDbEntity
  8
5MM
 62
     7
100
AcDbLine
 10
-2285.854551000791
 20
780.4670928148414
 30
0.0
 11
-2285.854551000791
 21
776.8137566799148
 31
0.0
  0
LINE
  5
E63
330
18
100
AcDbEntity
  8
5MM
 62
     7
100
AcDbLine
 10
-2290.854551000791
 20
776.8137566799148
 30
0.0
 11
-2285.854551000791
 21
776.8137566799148
 31
0.0
  0
LINE
  5
E64
330
18
100
AcDbEntity
  8
5MM
 62
     7
100
AcDbLine
 10
-2290.854551000791
 20
776.8137566799148
 30
0.0
 11
-2290.854551000791
 21
766.2137566799145
 31
0.0
  0
LINE
  5
E65
330
18
100
AcDbEntity
  8
5MM
 62
     7
100
AcDbLine
 10
-2290.854551000791
 20
766.2137566799145
 30
0.0
 11
-2285.854551000791
 21
766.2137566799145
 31
0.0
  0
LINE
  5
E66
330
18
100
AcDbEntity
  8
5MM
 62
     7
100
AcDbLine
 10
-2285.854551000791
 20
766.2137566799145
 30
0.0
 11
-2285.854551000791
 21
751.2137566799145
 31
0.0
  0
LINE
  5
E67
330
18
100
AcDbEntity
  8
5MM
 62
     7
100
AcDbLine
 10
-2252.222688928705
 20
-93.86491600423233
 30
0.0
 11
-2255.293179407979
 21
-128.9607827774626
 31
0.0
  0
LINE
  5
E68
330
18
100
AcDbEntity
  8
5MM
 62
     7
100
AcDbLine
 10
-2252.222688928705
 20
-93.86491600423233
 30
0.0
 11
-2255.293179407979
 21
-58.7690492310021
 31
0.0
  0
LINE
  5
E69
330
18
100
AcDbEntity
  8
5MM
 62
     7
100
AcDbLine
 10
-2281.938140019841
 20
-58.7690492310021
 30
0.0
 11
-2255.293179407979
 21
-58.7690492310021
 31
0.0
  0
LINE
  5
E6A
330
18
100
AcDbEntity
  8
5MM
 62
     7
100
AcDbLine
 10
-2281.938140019841
 20
-73.7690492310021
 30
0.0
 11
-2281.938140019841
 21
-58.7690492310021
 31
0.0
  0
LINE
  5
E6B
330
18
100
AcDbEntity
  8
5MM
 62
     7
100
AcDbLine
 10
-2286.938140019841
 20
-73.7690492310021
 30
0.0
 11
-2281.938140019841
 21
-73.7690492310021
 31
0.0
  0
LINE
  5
E6C
330
18
100
AcDbEntity
  8
5MM
 62
     7
100
AcDbLine
 10
-2286.938140019841
 20
-89.36904923100155
 30
0.0
 11
-2286.938140019841
 21
-73.7690492310021
 31
0.0
  0
LINE
  5
E6D
330
18
100
AcDbEntity
  8
5MM
 62
     7
100
AcDbLine
 10
-2286.938140019841
 20
-89.36904923100155
 30
0.0
 11
-2281.938140019841
 21
-89.36904923100155
 31
0.0
  0
LINE
  5
E6E
330
18
100
AcDbEntity
  8
5MM
 62
     7
100
AcDbLine
 10
-2281.938140019841
 20
-92.56904923100137
 30
0.0
 11
-2281.938140019841
 21
-89.36904923100155
 31
0.0
  0
LINE
  5
E6F
330
18
100
AcDbEntity
  8
5MM
 62
     7
100
AcDbLine
 10
-2281.938140019841
 20
-92.56904923100137
 30
0.0
 11
-2276.938140019841
 21
-92.56904923100137
 31
0.0
  0
LINE
  5
E70
330
18
100
AcDbEntity
  8
5MM
 62
     7
100
AcDbLine
 10
-2276.938140019841
 20
-92.56904923100137
 30
0.0
 11
-2276.938140019841
 21
-94.96904923100101
 31
0.0
  0
LINE
  5
E71
330
18
100
AcDbEntity
  8
5MM
 62
     7
100
AcDbLine
 10
-2281.938140019841
 20
-94.96904923100101
 30
0.0
 11
-2276.938140019841
 21
-94.96904923100101
 31
0.0
  0
LINE
  5
E72
330
18
100
AcDbEntity
  8
5MM
 62
     7
100
AcDbLine
 10
-2281.938140019841
 20
-94.96904923100101
 30
0.0
 11
-2281.938140019841
 21
-98.36078277746219
 31
0.0
  0
LINE
  5
E73
330
18
100
AcDbEntity
  8
5MM
 62
     7
100
AcDbLine
 10
-2286.938140019841
 20
-98.36078277746219
 30
0.0
 11
-2281.938140019841
 21
-98.36078277746219
 31
0.0
  0
LINE
  5
E74
330
18
100
AcDbEntity
  8
5MM
 62
     7
100
AcDbLine
 10
-2286.938140019841
 20
-98.36078277746219
 30
0.0
 11
-2286.938140019841
 21
-113.9607827774626
 31
0.0
  0
LINE
  5
E75
330
18
100
AcDbEntity
  8
5MM
 62
     7
100
AcDbLine
 10
-2286.938140019841
 20
-113.9607827774626
 30
0.0
 11
-2281.938140019841
 21
-113.9607827774626
 31
0.0
  0
LINE
  5
E76
330
18
100
AcDbEntity
  8
5MM
 62
     7
100
AcDbLine
 10
-2281.938140019841
 20
-113.9607827774626
 30
0.0
 11
-2281.938140019841
 21
-128.9607827774626
 31
0.0
  0
LINE
  5
E77
330
18
100
AcDbEntity
  8
5MM
 62
     7
100
AcDbLine
 10
-2281.938140019841
 20
-128.9607827774626
 30
0.0
 11
-2255.293179407979
 21
-128.9607827774626
 31
0.0
  0
LINE
  5
EAA
330
18
100
AcDbEntity
  8
5MM
 62
     7
100
AcDbLine
 10
-2250.932526780601
 20
521.2484773421033
 30
0.0
 11
-2250.932526780601
 21
526.2484773421033
 31
0.0
  0
LINE
  5
EAB
330
18
100
AcDbEntity
  8
5MM
 62
     7
100
AcDbLine
 10
-2220.932526780601
 20
531.8484773421037
 30
0.0
 11
-2220.932526780601
 21
427.3917541544083
 31
0.0
  0
LINE
  5
EAC
330
18
100
AcDbEntity
  8
5MM
 62
     7
100
AcDbLine
 10
-2292.832526780602
 20
442.3917541544083
 30
0.0
 11
-2292.832526780602
 21
427.3917541544083
 31
0.0
  0
LINE
  5
EAD
330
18
100
AcDbEntity
  8
5MM
 62
     7
100
AcDbLine
 10
-2292.832526780602
 20
427.3917541544083
 30
0.0
 11
-2220.932526780601
 21
427.3917541544083
 31
0.0
  0
LINE
  5
EAE
330
18
100
AcDbEntity
  8
5MM
 62
     7
100
AcDbLine
 10
-2250.932526780601
 20
432.9917541544087
 30
0.0
 11
-2246.532526780601
 21
432.9917541544087
 31
0.0
  0
LINE
  5
EAF
330
18
100
AcDbEntity
  8
5MM
 62
     7
100
AcDbLine
 10
-2250.932526780601
 20
437.6917541544085
 30
0.0
 11
-2250.932526780601
 21
432.9917541544087
 31
0.0
  0
LINE
  5
EB0
330
18
100
AcDbEntity
  8
5MM
 62
     7
100
AcDbLine
 10
-2282.232526780601
 20
437.9917541544087
 30
0.0
 11
-2250.932526780601
 21
437.9917541544087
 31
0.0
  0
LINE
  5
EB1
330
18
100
AcDbEntity
  8
5MM
 62
     7
100
AcDbLine
 10
-2282.232526780601
 20
521.2484773421033
 30
0.0
 11
-2282.232526780601
 21
437.9917541544087
 31
0.0
  0
LINE
  5
EB2
330
18
100
AcDbEntity
  8
5MM
 62
     7
100
AcDbLine
 10
-2246.532526780601
 20
526.2484773421033
 30
0.0
 11
-2246.532526780601
 21
432.9917541544087
 31
0.0
  0
LINE
  5
EB3
330
18
100
AcDbEntity
  8
5MM
 62
     7
100
AcDbLine
 10
-2250.932526780601
 20
526.2484773421033
 30
0.0
 11
-2246.532526780601
 21
526.2484773421033
 31
0.0
  0
LINE
  5
EB4
330
18
100
AcDbEntity
  8
5MM
 62
     7
100
AcDbLine
 10
-2250.932526780601
 20
432.9917541544087
 30
0.0
 11
-2250.932526780601
 21
437.9917541544087
 31
0.0
  0
LINE
  5
EB5
330
18
100
AcDbEntity
  8
5MM
 62
     7
100
AcDbLine
 10
-2282.232526780601
 20
521.2484773421033
 30
0.0
 11
-2250.932526780601
 21
521.2484773421033
 31
0.0
  0
LINE
  5
EB6
330
18
100
AcDbEntity
  8
5MM
 62
     7
100
AcDbLine
 10
-2292.832526780602
 20
531.8484773421037
 30
0.0
 11
-2220.932526780601
 21
531.8484773421037
 31
0.0
  0
LINE
  5
EB7
330
18
100
AcDbEntity
  8
5MM
 62
     7
100
AcDbLine
 10
-2292.832526780602
 20
531.8484773421037
 30
0.0
 11
-2292.832526780602
 21
516.8484773421037
 31
0.0
  0
LINE
  5
EB8
330
18
100
AcDbEntity
  8
5MM
 62
     7
100
AcDbLine
 10
-2297.832526780602
 20
516.8484773421037
 30
0.0
 11
-2292.832526780602
 21
516.8484773421037
 31
0.0
  0
LINE
  5
EB9
330
18
100
AcDbEntity
  8
5MM
 62
     7
100
AcDbLine
 10
-2297.832526780602
 20
516.8484773421037
 30
0.0
 11
-2297.832526780602
 21
501.2484773421033
 31
0.0
  0
LINE
  5
EBA
330
18
100
AcDbEntity
  8
5MM
 62
     7
100
AcDbLine
 10
-2297.832526780602
 20
501.2484773421033
 30
0.0
 11
-2292.832526780602
 21
501.2484773421033
 31
0.0
  0
LINE
  5
EBB
330
18
100
AcDbEntity
  8
5MM
 62
     7
100
AcDbLine
 10
-2292.832526780602
 20
501.2484773421033
 30
0.0
 11
-2292.832526780602
 21
481.0484773421026
 31
0.0
  0
LINE
  5
EBC
330
18
100
AcDbEntity
  8
5MM
 62
     7
100
AcDbLine
 10
-2287.832526780601
 20
481.0484773421026
 30
0.0
 11
-2287.832526780601
 21
478.648477342103
 31
0.0
  0
LINE
  5
EBD
330
18
100
AcDbEntity
  8
5MM
 62
     7
100
AcDbLine
 10
-2292.832526780602
 20
481.0484773421026
 30
0.0
 11
-2287.832526780601
 21
481.0484773421026
 31
0.0
  0
LINE
  5
EBE
330
18
100
AcDbEntity
  8
5MM
 62
     7
100
AcDbLine
 10
-2292.832526780602
 20
478.648477342103
 30
0.0
 11
-2287.832526780601
 21
478.648477342103
 31
0.0
  0
LINE
  5
EBF
330
18
100
AcDbEntity
  8
5MM
 62
     7
100
AcDbLine
 10
-2292.832526780602
 20
478.648477342103
 30
0.0
 11
-2292.832526780602
 21
457.9917541544087
 31
0.0
  0
LINE
  5
EC0
330
18
100
AcDbEntity
  8
5MM
 62
     7
100
AcDbLine
 10
-2297.832526780602
 20
457.9917541544087
 30
0.0
 11
-2292.832526780602
 21
457.9917541544087
 31
0.0
  0
LINE
  5
EC1
330
18
100
AcDbEntity
  8
5MM
 62
     7
100
AcDbLine
 10
-2297.832526780602
 20
442.3917541544083
 30
0.0
 11
-2292.832526780602
 21
442.3917541544083
 31
0.0
  0
LINE
  5
EC2
330
18
100
AcDbEntity
  8
5MM
 62
     7
100
AcDbLine
 10
-2297.832526780602
 20
457.9917541544087
 30
0.0
 11
-2297.832526780602
 21
442.3917541544083
 31
0.0
  0
LINE
  5
EC3
330
18
100
AcDbEntity
  8
5MM
 62
     7
100
AcDbLine
 10
-2217.551511692936
 20
181.0443999185519
 30
0.0
 11
-2217.551511692936
 21
287.2443999185527
 31
0.0
  0
LINE
  5
EC4
330
18
100
AcDbEntity
  8
5MM
 62
     7
100
AcDbLine
 10
-2294.431511692936
 20
287.2443999185527
 30
0.0
 11
-2217.551511692936
 21
287.2443999185527
 31
0.0
  0
LINE
  5
EC5
330
18
100
AcDbEntity
  8
5MM
 62
     7
100
AcDbLine
 10
-2294.431511692936
 20
287.2443999185527
 30
0.0
 11
-2294.431511692936
 21
276.6443999185524
 31
0.0
  0
LINE
  5
EC6
330
18
100
AcDbEntity
  8
5MM
 62
     7
100
AcDbLine
 10
-2247.551511692936
 20
281.6443999185524
 30
0.0
 11
-2243.151511692935
 21
281.6443999185524
 31
0.0
  0
LINE
  5
EC7
330
18
100
AcDbEntity
  8
5MM
 62
     7
100
AcDbLine
 10
-2247.551511692936
 20
281.6443999185524
 30
0.0
 11
-2247.551511692936
 21
276.6443999185524
 31
0.0
  0
LINE
  5
EC8
330
18
100
AcDbEntity
  8
5MM
 62
     7
100
AcDbLine
 10
-2294.431511692936
 20
276.6443999185524
 30
0.0
 11
-2247.551511692936
 21
276.6443999185524
 31
0.0
  0
LINE
  5
EC9
330
18
100
AcDbEntity
  8
5MM
 62
     7
100
AcDbLine
 10
-2243.151511692935
 20
281.6443999185524
 30
0.0
 11
-2243.151511692935
 21
186.6443999185523
 31
0.0
  0
LINE
  5
ECA
330
18
100
AcDbEntity
  8
5MM
 62
     7
100
AcDbLine
 10
-2247.551511692936
 20
186.6443999185523
 30
0.0
 11
-2243.151511692935
 21
186.6443999185523
 31
0.0
  0
LINE
  5
ECB
330
18
100
AcDbEntity
  8
5MM
 62
     7
100
AcDbLine
 10
-2247.551511692936
 20
191.6443999185523
 30
0.0
 11
-2247.551511692936
 21
186.6443999185523
 31
0.0
  0
LINE
  5
ECC
330
18
100
AcDbEntity
  8
5MM
 62
     7
100
AcDbLine
 10
-2294.431511692936
 20
191.6443999185523
 30
0.0
 11
-2247.551511692936
 21
191.6443999185523
 31
0.0
  0
LINE
  5
ECD
330
18
100
AcDbEntity
  8
5MM
 62
     7
100
AcDbLine
 10
-2294.431511692936
 20
191.6443999185523
 30
0.0
 11
-2294.431511692936
 21
181.0443999185519
 31
0.0
  0
LINE
  5
ECE
330
18
100
AcDbEntity
  8
5MM
 62
     7
100
AcDbLine
 10
-2294.431511692936
 20
181.0443999185519
 30
0.0
 11
-2217.551511692936
 21
181.0443999185519
 31
0.0
  0
ARC
  5
ECF
330
18
100
AcDbEntity
  8
5MM
 62
     7
100
AcDbCircle
 10
-2091.07555387098
 20
548.1916666079436
 30
0.0
 40
136.8804246422901
100
AcDbArc
 50
160.9257563228021
 51
181.0580054385746
  0
ARC
  5
ED0
330
18
100
AcDbEntity
  8
5MM
 62
     7
100
AcDbCircle
 10
-2091.07555387098
 20
637.6548178812549
 30
0.0
 40
136.8804246422899
100
AcDbArc
 50
178.9419945614255
 51
199.0742436771976
  0
LINE
  5
ED1
330
18
100
AcDbEntity
  8
5MM
 62
     7
100
AcDbLine
 10
-2292.058237125889
 20
640.182264141907
 30
0.0
 11
-2227.932642345247
 21
640.182264141907
 31
0.0
  0
LINE
  5
ED2
330
18
100
AcDbEntity
  8
5MM
 62
     7
100
AcDbLine
 10
-2292.058237125889
 20
625.182264141907
 30
0.0
 11
-2292.058237125889
 21
640.182264141907
 31
0.0
  0
LINE
  5
ED3
330
18
100
AcDbEntity
  8
5MM
 62
     7
100
AcDbLine
 10
-2297.058237125889
 20
625.182264141907
 30
0.0
 11
-2292.058237125889
 21
625.182264141907
 31
0.0
  0
LINE
  5
ED4
330
18
100
AcDbEntity
  8
5MM
 62
     7
100
AcDbLine
 10
-2297.058237125889
 20
609.5822641419066
 30
0.0
 11
-2297.058237125889
 21
625.182264141907
 31
0.0
  0
LINE
  5
ED5
330
18
100
AcDbEntity
  8
5MM
 62
     7
100
AcDbLine
 10
-2297.058237125889
 20
609.5822641419066
 30
0.0
 11
-2292.058237125889
 21
609.5822641419066
 31
0.0
  0
LINE
  5
ED6
330
18
100
AcDbEntity
  8
5MM
 62
     7
100
AcDbLine
 10
-2292.058237125889
 20
594.1822641419061
 30
0.0
 11
-2292.058237125889
 21
609.5822641419066
 31
0.0
  0
LINE
  5
ED7
330
18
100
AcDbEntity
  8
5MM
 62
     7
100
AcDbLine
 10
-2292.058237125889
 20
594.1822641419061
 30
0.0
 11
-2287.058237125889
 21
594.1822641419061
 31
0.0
  0
LINE
  5
ED8
330
18
100
AcDbEntity
  8
5MM
 62
     7
100
AcDbLine
 10
-2287.058237125889
 20
594.1822641419061
 30
0.0
 11
-2287.058237125889
 21
591.7822641419065
 31
0.0
  0
LINE
  5
ED9
330
18
100
AcDbEntity
  8
5MM
 62
     7
100
AcDbLine
 10
-2292.058237125889
 20
591.7822641419065
 30
0.0
 11
-2287.058237125889
 21
591.7822641419065
 31
0.0
  0
LINE
  5
EDA
330
18
100
AcDbEntity
  8
5MM
 62
     7
100
AcDbLine
 10
-2292.058237125889
 20
591.7822641419065
 30
0.0
 11
-2292.058237125889
 21
576.2642203472927
 31
0.0
  0
LINE
  5
EDB
330
18
100
AcDbEntity
  8
5MM
 62
     7
100
AcDbLine
 10
-2297.058237125889
 20
576.2642203472927
 30
0.0
 11
-2292.058237125889
 21
576.2642203472927
 31
0.0
  0
LINE
  5
EDC
330
18
100
AcDbEntity
  8
5MM
 62
     7
100
AcDbLine
 10
-2297.058237125889
 20
576.2642203472927
 30
0.0
 11
-2297.058237125889
 21
560.6642203472924
 31
0.0
  0
LINE
  5
EDD
330
18
100
AcDbEntity
  8
5MM
 62
     7
100
AcDbLine
 10
-2297.058237125889
 20
560.6642203472924
 30
0.0
 11
-2292.058237125889
 21
560.6642203472924
 31
0.0
  0
LINE
  5
EDE
330
18
100
AcDbEntity
  8
5MM
 62
     7
100
AcDbLine
 10
-2292.058237125889
 20
560.6642203472924
 30
0.0
 11
-2292.058237125889
 21
545.6642203472924
 31
0.0
  0
LINE
  5
EDF
330
18
100
AcDbEntity
  8
5MM
 62
     7
100
AcDbLine
 10
-2292.058237125889
 20
545.6642203472924
 30
0.0
 11
-2227.932642345247
 21
545.6642203472915
 31
0.0
  0
LINE
  5
EE7
330
18
100
AcDbEntity
  8
5MM
 62
     7
100
AcDbLine
 10
-2390.312486347744
 20
501.5418317634312
 30
0.0
 11
-2340.226850211181
 21
43.79270676096439
 31
0.0
  0
LINE
  5
EE8
330
18
100
AcDbEntity
  8
5MM
 62
     7
100
AcDbLine
 10
-2332.486248693447
 20
43.79646348352162
 30
0.0
 11
-2340.226850211181
 21
43.79270676096439
 31
0.0
  0
LINE
  5
EE9
330
18
100
AcDbEntity
  8
5MM
 62
     7
100
AcDbLine
 10
-2332.966733855844
 20
800.6973300349914
 30
0.0
 11
-2332.486248693447
 21
43.79646348352162
 31
0.0
  0
ARC
  5
EEA
330
18
100
AcDbEntity
  8
5MM
 62
     7
100
AcDbCircle
 10
-2528.798919231552
 20
847.2634712697572
 30
0.0
 40
176.6812917808154
100
AcDbArc
 50
331.2905077874892
 51
344.7135472073941
  0
ARC
  5
EEB
330
18
100
AcDbEntity
  8
5MM
 62
     7
100
AcDbCircle
 10
-2116.914647772233
 20
632.638145306044
 30
0.0
 40
287.8260361082466
100
AcDbArc
 50
153.1742225222278
 51
179.9551376638315
  0
LINE
  5
EEC
330
18
100
AcDbEntity
  8
5MM
 62
     7
100
AcDbLine
 10
-2404.657136023016
 20
501.5333194000877
 30
0.0
 11
-2404.740595158221
 21
632.8701785003723
 31
0.0
  0
LINE
  5
EED
330
18
100
AcDbEntity
  8
5MM
 62
     7
100
AcDbLine
 10
-2390.312486347744
 20
501.5418317634312
 30
0.0
 11
-2404.657136023016
 21
501.5333194000877
 31
0.0
  0
LINE
  5
EFC
330
18
100
AcDbEntity
  8
5MM
 62
     7
100
AcDbLine
 10
-2249.787852747886
 20
-3.109454552060697
 30
0.0
 11
-2253.820380998284
 21
-49.20146336648003
 31
0.0
  0
LINE
  5
EFD
330
18
100
AcDbEntity
  8
5MM
 62
     7
100
AcDbLine
 10
-2249.787852747886
 20
-3.109454552060697
 30
0.0
 11
-2253.820380998284
 21
42.98255426235698
 31
0.0
  0
LINE
  5
EFE
330
18
100
AcDbEntity
  8
5MM
 62
     7
100
AcDbLine
 10
-2290.453167211497
 20
42.98255426235698
 30
0.0
 11
-2253.820380998284
 21
42.98255426235698
 31
0.0
  0
LINE
  5
EFF
330
18
100
AcDbEntity
  8
5MM
 62
     7
100
AcDbLine
 10
-2290.453167211497
 20
27.98255426235698
 30
0.0
 11
-2290.453167211497
 21
42.98255426235698
 31
0.0
  0
LINE
  5
F00
330
18
100
AcDbEntity
  8
5MM
 62
     7
100
AcDbLine
 10
-2295.453167211497
 20
27.98255426235698
 30
0.0
 11
-2290.453167211497
 21
27.98255426235698
 31
0.0
  0
LINE
  5
F01
330
18
100
AcDbEntity
  8
5MM
 62
     7
100
AcDbLine
 10
-2295.453167211497
 20
12.38255426235753
 30
0.0
 11
-2295.453167211497
 21
27.98255426235698
 31
0.0
  0
LINE
  5
F02
330
18
100
AcDbEntity
  8
5MM
 62
     7
100
AcDbLine
 10
-2295.453167211497
 20
12.38255426235753
 30
0.0
 11
-2290.453167211497
 21
12.38255426235753
 31
0.0
  0
LINE
  5
F03
330
18
100
AcDbEntity
  8
5MM
 62
     7
100
AcDbLine
 10
-2290.453167211497
 20
-1.917445737642652
 30
0.0
 11
-2290.453167211497
 21
12.38255426235753
 31
0.0
  0
LINE
  5
F04
330
18
100
AcDbEntity
  8
5MM
 62
     7
100
AcDbLine
 10
-2290.453167211497
 20
-1.917445737642652
 30
0.0
 11
-2285.453167211497
 21
-1.917445737642652
 31
0.0
  0
LINE
  5
F05
330
18
100
AcDbEntity
  8
5MM
 62
     7
100
AcDbLine
 10
-2285.453167211497
 20
-1.917445737642652
 30
0.0
 11
-2285.453167211497
 21
-4.317445737643197
 31
0.0
  0
LINE
  5
F06
330
18
100
AcDbEntity
  8
5MM
 62
     7
100
AcDbLine
 10
-2290.453167211497
 20
-4.317445737643197
 30
0.0
 11
-2285.453167211497
 21
-4.317445737643197
 31
0.0
  0
LINE
  5
F07
330
18
100
AcDbEntity
  8
5MM
 62
     7
100
AcDbLine
 10
-2290.453167211497
 20
-4.317445737643197
 30
0.0
 11
-2290.453167211497
 21
-18.60146336648063
 31
0.0
  0
LINE
  5
F08
330
18
100
AcDbEntity
  8
5MM
 62
     7
100
AcDbLine
 10
-2295.453167211497
 20
-18.60146336648063
 30
0.0
 11
-2290.453167211497
 21
-18.60146336648063
 31
0.0
  0
LINE
  5
F09
330
18
100
AcDbEntity
  8
5MM
 62
     7
100
AcDbLine
 10
-2295.453167211497
 20
-18.60146336648063
 30
0.0
 11
-2295.453167211497
 21
-34.20146336648003
 31
0.0
  0
LINE
  5
F0A
330
18
100
AcDbEntity
  8
5MM
 62
     7
100
AcDbLine
 10
-2295.453167211497
 20
-34.20146336648003
 30
0.0
 11
-2290.453167211497
 21
-34.20146336648003
 31
0.0
  0
LINE
  5
F0B
330
18
100
AcDbEntity
  8
5MM
 62
     7
100
AcDbLine
 10
-2290.453167211497
 20
-34.20146336648003
 30
0.0
 11
-2290.453167211497
 21
-49.20146336648003
 31
0.0
  0
LINE
  5
F0C
330
18
100
AcDbEntity
  8
5MM
 62
     7
100
AcDbLine
 10
-2290.453167211497
 20
-49.20146336648003
 30
0.0
 11
-2253.820380998284
 21
-49.20146336648003
 31
0.0
  0
ARC
  5
F0D
330
18
100
AcDbEntity
  8
5MM
 62
     7
100
AcDbCircle
 10
-2190.75053888697
 20
735.6364920262608
 30
0.0
 40
57.53690484817061
100
AcDbArc
 50
183.1047413071936
 51
226.7438712457489
  0
ARC
  5
F0E
330
18
100
AcDbEntity
  8
5MM
 62
     7
100
AcDbCircle
 10
-2190.75053888697
 20
651.8285041105796
 30
0.0
 40
57.53690484816975
100
AcDbArc
 50
133.2561287542508
 51
176.8952586928051
  0
LINE
  5
F0F
330
18
100
AcDbEntity
  8
5MM
 62
     7
100
AcDbLine
 10
-2288.96370344465
 20
732.5202102265489
 30
0.0
 11
-2248.202990594902
 21
732.5202102265489
 31
0.0
  0
LINE
  5
F10
330
18
100
AcDbEntity
  8
5MM
 62
     7
100
AcDbLine
 10
-2288.96370344465
 20
717.5202102265484
 30
0.0
 11
-2288.96370344465
 21
732.5202102265489
 31
0.0
  0
LINE
  5
F11
330
18
100
AcDbEntity
  8
5MM
 62
     7
100
AcDbLine
 10
-2293.96370344465
 20
717.5202102265484
 30
0.0
 11
-2288.96370344465
 21
717.5202102265484
 31
0.0
  0
LINE
  5
F12
330
18
100
AcDbEntity
  8
5MM
 62
     7
100
AcDbLine
 10
-2293.96370344465
 20
701.920210226549
 30
0.0
 11
-2293.96370344465
 21
717.5202102265484
 31
0.0
  0
LINE
  5
F13
330
18
100
AcDbEntity
  8
5MM
 62
     7
100
AcDbLine
 10
-2293.96370344465
 20
701.920210226549
 30
0.0
 11
-2288.96370344465
 21
701.920210226549
 31
0.0
  0
LINE
  5
F14
330
18
100
AcDbEntity
  8
5MM
 62
     7
100
AcDbLine
 10
-2288.96370344465
 20
694.920210226549
 30
0.0
 11
-2288.96370344465
 21
701.920210226549
 31
0.0
  0
LINE
  5
F15
330
18
100
AcDbEntity
  8
5MM
 62
     7
100
AcDbLine
 10
-2288.96370344465
 20
694.920210226549
 30
0.0
 11
-2283.96370344465
 21
694.920210226549
 31
0.0
  0
LINE
  5
F16
330
18
100
AcDbEntity
  8
5MM
 62
     7
100
AcDbLine
 10
-2283.96370344465
 20
692.5202102265484
 30
0.0
 11
-2283.96370344465
 21
694.920210226549
 31
0.0
  0
LINE
  5
F17
330
18
100
AcDbEntity
  8
5MM
 62
     7
100
AcDbLine
 10
-2288.96370344465
 20
692.5202102265484
 30
0.0
 11
-2283.96370344465
 21
692.5202102265484
 31
0.0
  0
LINE
  5
F18
330
18
100
AcDbEntity
  8
5MM
 62
     7
100
AcDbLine
 10
-2288.96370344465
 20
692.5202102265484
 30
0.0
 11
-2288.96370344465
 21
685.5447859102924
 31
0.0
  0
LINE
  5
F19
330
18
100
AcDbEntity
  8
5MM
 62
     7
100
AcDbLine
 10
-2293.96370344465
 20
685.5447859102924
 30
0.0
 11
-2288.96370344465
 21
685.5447859102924
 31
0.0
  0
LINE
  5
F1A
330
18
100
AcDbEntity
  8
5MM
 62
     7
100
AcDbLine
 10
-2293.96370344465
 20
685.5447859102924
 30
0.0
 11
-2293.96370344465
 21
669.9447859102929
 31
0.0
  0
LINE
  5
F1B
330
18
100
AcDbEntity
  8
5MM
 62
     7
100
AcDbLine
 10
-2293.96370344465
 20
669.9447859102929
 30
0.0
 11
-2288.96370344465
 21
669.9447859102929
 31
0.0
  0
LINE
  5
F1C
330
18
100
AcDbEntity
  8
5MM
 62
     7
100
AcDbLine
 10
-2288.96370344465
 20
669.9447859102929
 30
0.0
 11
-2288.96370344465
 21
654.9447859102929
 31
0.0
  0
LINE
  5
F1D
330
18
100
AcDbEntity
  8
5MM
 62
     7
100
AcDbLine
 10
-2288.96370344465
 20
654.9447859102929
 30
0.0
 11
-2248.202990594901
 21
654.9447859102929
 31
0.0
  0
LINE
  5
F1E
330
18
100
AcDbEntity
  8
5MM
 62
     7
100
AcDbLine
 10
-2440.134526444326
 20
497.4589958514071
 30
0.0
 11
-2440.153048248629
 21
567.9589934183778
 31
0.0
  0
ARC
  5
F1F
330
18
100
AcDbEntity
  8
5MM
 62
     7
100
AcDbCircle
 10
-3573.535216869308
 20
584.9284622010538
 30
0.0
 40
1133.499840195488
100
AcDbArc
 50
359.1419695741686
 51
9.165450834496088
  0
ARC
  5
F20
330
18
100
AcDbEntity
  8
5MM
 62
     7
100
AcDbCircle
 10
-2664.33979095796
 20
722.6791418712182
 30
0.0
 40
214.1532058031507
100
AcDbArc
 50
11.53188853277681
 51
19.97750181671527
  0
ARC
  5
F21
330
18
100
AcDbEntity
  8
5MM
 62
     7
100
AcDbCircle
 10
-2526.198932657554
 20
771.1030257398879
 30
0.0
 40
67.80170051808801
100
AcDbArc
 50
21.40866301576215
 51
60.72186610057341
  0
LINE
  5
F22
330
18
100
AcDbEntity
  8
5MM
 62
     7
100
AcDbLine
 10
-2493.040537897819
 20
830.2434641057148
 30
0.0
 11
-2504.800338505997
 21
830.2420793187484
 31
0.0
  0
ARC
  5
F23
330
18
100
AcDbEntity
  8
5MM
 62
     7
100
AcDbCircle
 10
-2471.613911918225
 20
771.1173663513327
 30
0.0
 40
67.80170051809083
100
AcDbArc
 50
119.3052949927892
 51
158.6214425509827
  0
ARC
  5
F24
330
18
100
AcDbEntity
  8
5MM
 62
     7
100
AcDbCircle
 10
-2333.447628781847
 20
722.7660740710053
 30
0.0
 40
214.1532058031513
100
AcDbArc
 50
160.0526037500303
 51
168.4982170339688
  0
ARC
  5
F25
330
18
100
AcDbEntity
  8
5MM
 62
     7
100
AcDbCircle
 10
-1424.179948491949
 20
585.4931421873525
 30
0.0
 40
1133.499840195486
100
AcDbArc
 50
170.8646547322493
 51
180.8881359925767
  0
LINE
  5
F26
330
18
100
AcDbEntity
  8
5MM
 62
     7
100
AcDbLine
 10
-2557.534522392727
 20
497.4281524496309
 30
0.0
 11
-2557.553044197031
 21
567.9281500165998
 31
0.0
  0
ARC
  5
F27
330
18
100
AcDbEntity
  8
5MM
 62
     7
100
AcDbCircle
 10
-4019.361272412924
 20
475.538513294595
 30
0.0
 40
1579.378900266808
100
AcDbArc
 50
344.3253958991857
 51
0.7953921494251555
  0
ARC
  5
F28
330
18
100
AcDbEntity
  8
5MM
 62
     7
100
AcDbCircle
 10
-978.2964765018
 20
476.3374637764227
 30
0.0
 40
1579.378900266812
100
AcDbArc
 50
179.2347134173205
 51
195.7046313770614
  0
LINE
  5
F29
330
18
100
AcDbEntity
  8
5MM
 62
     7
100
AcDbLine
 10
-2484.398434830015
 20
799.3973772297941
 30
0.0
 11
-2484.39727885925
 21
794.9973773816432
 31
0.0
  0
LINE
  5
F2A
330
18
100
AcDbEntity
  8
5MM
 62
     7
100
AcDbLine
 10
-2484.39727885925
 20
794.9973773816432
 30
0.0
 11
-2493.797278534846
 21
794.9949078077352
 31
0.0
  0
LINE
  5
F2B
330
18
100
AcDbEntity
  8
5MM
 62
     7
100
AcDbLine
 10
-2484.398434830015
 20
799.3973772297941
 30
0.0
 11
-2493.798434505612
 21
799.394907655887
 31
0.0
  0
LINE
  5
F2C
330
18
100
AcDbEntity
  8
5MM
 62
     7
100
AcDbLine
 10
-2493.798434505612
 20
799.394907655887
 30
0.0
 11
-2493.797278534846
 21
794.9949078077352
 31
0.0
  0
LINE
  5
F2D
330
18
100
AcDbEntity
  8
5MM
 62
     7
100
AcDbLine
 10
-2513.429270994541
 20
799.3897502300101
 30
0.0
 11
-2513.428115023776
 21
794.9897503818593
 31
0.0
  0
LINE
  5
F2E
330
18
100
AcDbEntity
  8
5MM
 62
     7
100
AcDbLine
 10
-2504.029271318945
 20
799.3922198039172
 30
0.0
 11
-2504.02811534818
 21
794.9922199557654
 31
0.0
  0
LINE
  5
F2F
330
18
100
AcDbEntity
  8
5MM
 62
     7
100
AcDbLine
 10
-2513.429270994541
 20
799.3897502300101
 30
0.0
 11
-2504.029271318945
 21
799.3922198039172
 31
0.0
  0
LINE
  5
F30
330
18
100
AcDbEntity
  8
5MM
 62
     7
100
AcDbLine
 10
-2513.428115023776
 20
794.9897503818593
 30
0.0
 11
-2504.02811534818
 21
794.9922199557654
 31
0.0
  0
LINE
  5
F31
330
18
100
AcDbEntity
  8
5MM
 62
     7
100
AcDbLine
 10
-2475.73227524188
 20
766.6496528785283
 30
0.0
 11
-2475.731119271115
 21
762.2496530303765
 31
0.0
  0
LINE
  5
F32
330
18
100
AcDbEntity
  8
5MM
 62
     7
100
AcDbLine
 10
-2475.731119271115
 20
762.2496530303765
 30
0.0
 11
-2490.131118774155
 21
762.2458698533273
 31
0.0
  0
LINE
  5
F33
330
18
100
AcDbEntity
  8
5MM
 62
     7
100
AcDbLine
 10
-2475.73227524188
 20
766.6496528785283
 30
0.0
 11
-2490.132274744921
 21
766.6458697014791
 31
0.0
  0
LINE
  5
F34
330
18
100
AcDbEntity
  8
5MM
 62
     7
100
AcDbLine
 10
-2490.132274744921
 20
766.6458697014791
 30
0.0
 11
-2490.131118774155
 21
762.2458698533273
 31
0.0
  0
LINE
  5
F35
330
18
100
AcDbEntity
  8
5MM
 62
     7
100
AcDbLine
 10
-2507.678222878474
 20
766.6412600188005
 30
0.0
 11
-2507.677066907708
 21
762.2412601706487
 31
0.0
  0
LINE
  5
F36
330
18
100
AcDbEntity
  8
5MM
 62
     7
100
AcDbLine
 10
-2522.077066410749
 20
762.2374769935996
 30
0.0
 11
-2507.677066907708
 21
762.2412601706487
 31
0.0
  0
LINE
  5
F37
330
18
100
AcDbEntity
  8
5MM
 62
     7
100
AcDbLine
 10
-2522.078222381514
 20
766.6374768417504
 30
0.0
 11
-2507.678222878474
 21
766.6412600188005
 31
0.0
  0
LINE
  5
F38
330
18
100
AcDbEntity
  8
5MM
 62
     7
100
AcDbLine
 10
-2522.078222381514
 20
766.6374768417504
 30
0.0
 11
-2522.077066410749
 21
762.2374769935996
 31
0.0
  0
LINE
  5
F39
330
18
100
AcDbEntity
  8
5MM
 62
     7
100
AcDbLine
 10
-2467.547978515604
 20
701.1518008017065
 30
0.0
 11
-2467.54682254484
 21
696.7518009535547
 31
0.0
  0
LINE
  5
F3A
330
18
100
AcDbEntity
  8
5MM
 62
     7
100
AcDbLine
 10
-2467.54682254484
 20
696.7518009535547
 30
0.0
 11
-2481.946822047881
 21
696.7480177765055
 31
0.0
  0
LINE
  5
F3B
330
18
100
AcDbEntity
  8
5MM
 62
     7
100
AcDbLine
 10
-2467.547978515604
 20
701.1518008017065
 30
0.0
 11
-2481.947978018646
 21
701.1480176246564
 31
0.0
  0
LINE
  5
F3C
330
18
100
AcDbEntity
  8
5MM
 62
     7
100
AcDbLine
 10
-2481.947978018646
 20
701.1480176246564
 30
0.0
 11
-2481.946822047881
 21
696.7480177765055
 31
0.0
  0
LINE
  5
F3D
330
18
100
AcDbEntity
  8
5MM
 62
     7
100
AcDbLine
 10
-2515.828103202425
 20
701.1391166165704
 30
0.0
 11
-2515.826947231659
 21
696.7391167684195
 31
0.0
  0
LINE
  5
F3E
330
18
100
AcDbEntity
  8
5MM
 62
     7
100
AcDbLine
 10
-2530.226946734701
 20
696.7353335913704
 30
0.0
 11
-2515.826947231659
 21
696.7391167684195
 31
0.0
  0
LINE
  5
F3F
330
18
100
AcDbEntity
  8
5MM
 62
     7
100
AcDbLine
 10
-2530.228102705466
 20
701.1353334395221
 30
0.0
 11
-2515.828103202425
 21
701.1391166165704
 31
0.0
  0
LINE
  5
F40
330
18
100
AcDbEntity
  8
5MM
 62
     7
100
AcDbLine
 10
-2530.228102705466
 20
701.1353334395221
 30
0.0
 11
-2530.226946734701
 21
696.7353335913704
 31
0.0
  0
LINE
  5
F41
330
18
100
AcDbEntity
  8
5MM
 62
     7
100
AcDbLine
 10
-2462.593474575571
 20
635.6531001916665
 30
0.0
 11
-2462.592318604806
 21
631.2531003435151
 31
0.0
  0
LINE
  5
F42
330
18
100
AcDbEntity
  8
5MM
 62
     7
100
AcDbLine
 10
-2462.592318604806
 20
631.2531003435151
 30
0.0
 11
-2476.992318107846
 21
631.2493171664655
 31
0.0
  0
LINE
  5
F43
330
18
100
AcDbEntity
  8
5MM
 62
     7
100
AcDbLine
 10
-2476.993474078612
 20
635.6493170146168
 30
0.0
 11
-2476.992318107846
 21
631.2493171664655
 31
0.0
  0
LINE
  5
F44
330
18
100
AcDbEntity
  8
5MM
 62
     7
100
AcDbLine
 10
-2462.593474575571
 20
635.6531001916665
 30
0.0
 11
-2476.993474078612
 21
635.6493170146168
 31
0.0
  0
LINE
  5
F45
330
18
100
AcDbEntity
  8
5MM
 62
     7
100
AcDbLine
 10
-2520.748190740137
 20
635.6378217475622
 30
0.0
 11
-2520.747034769372
 21
631.2378218994118
 31
0.0
  0
LINE
  5
F46
330
18
100
AcDbEntity
  8
5MM
 62
     7
100
AcDbLine
 10
-2535.147034272413
 20
631.2340387223612
 30
0.0
 11
-2520.747034769372
 21
631.2378218994118
 31
0.0
  0
LINE
  5
F47
330
18
100
AcDbEntity
  8
5MM
 62
     7
100
AcDbLine
 10
-2535.148190243177
 20
635.6340385705125
 30
0.0
 11
-2520.748190740137
 21
635.6378217475622
 31
0.0
  0
LINE
  5
F48
330
18
100
AcDbEntity
  8
5MM
 62
     7
100
AcDbLine
 10
-2535.148190243177
 20
635.6340385705125
 30
0.0
 11
-2535.147034272413
 21
631.2340387223612
 31
0.0
  0
LINE
  5
F49
330
18
100
AcDbEntity
  8
5MM
 62
     7
100
AcDbLine
 10
-2460.752469552319
 20
565.7535814493558
 30
0.0
 11
-2460.753625523084
 21
570.1535812975071
 31
0.0
  0
LINE
  5
F4A
330
18
100
AcDbEntity
  8
5MM
 62
     7
100
AcDbLine
 10
-2460.752469552319
 20
565.7535814493558
 30
0.0
 11
-2475.152469055359
 21
565.7497982723062
 31
0.0
  0
LINE
  5
F4B
330
18
100
AcDbEntity
  8
5MM
 62
     7
100
AcDbLine
 10
-2460.753625523084
 20
570.1535812975071
 30
0.0
 11
-2475.153625026125
 21
570.1497981204575
 31
0.0
  0
LINE
  5
F4C
330
18
100
AcDbEntity
  8
5MM
 62
     7
100
AcDbLine
 10
-2475.152469055359
 20
565.7497982723062
 30
0.0
 11
-2475.153625026125
 21
570.1497981204566
 31
0.0
  0
LINE
  5
F4D
330
18
100
AcDbEntity
  8
5MM
 62
     7
100
AcDbLine
 10
-2522.552467419535
 20
565.7373453145201
 30
0.0
 11
-2522.553623390301
 21
570.1373451626705
 31
0.0
  0
LINE
  5
F4E
330
18
100
AcDbEntity
  8
5MM
 62
     7
100
AcDbLine
 10
-2536.953622893341
 20
570.1335619856209
 30
0.0
 11
-2522.553623390301
 21
570.1373451626705
 31
0.0
  0
LINE
  5
F4F
330
18
100
AcDbEntity
  8
5MM
 62
     7
100
AcDbLine
 10
-2536.952466922576
 20
565.7335621374696
 30
0.0
 11
-2522.552467419535
 21
565.7373453145201
 31
0.0
  0
LINE
  5
F50
330
18
100
AcDbEntity
  8
5MM
 62
     7
100
AcDbLine
 10
-2536.952466922576
 20
565.7335621374696
 30
0.0
 11
-2536.953622893341
 21
570.1335619856209
 31
0.0
  0
LINE
  5
F51
330
18
100
AcDbEntity
  8
MADERA
 62
     7
100
AcDbLine
 10
-2445.734605067252
 20
497.7575246055358
 30
0.0
 11
-2445.737074641159
 21
507.1575242811323
 31
0.0
  0
LINE
  5
F52
330
18
100
AcDbEntity
  8
MADERA
 62
     7
100
AcDbLine
 10
-2445.737074641159
 20
507.1575242811323
 30
0.0
 11
-2455.137074316755
 21
507.1550547072247
 31
0.0
  0
LINE
  5
F53
330
18
100
AcDbEntity
  8
MADERA
 62
     7
100
AcDbLine
 10
-2445.734605067252
 20
497.7575246055358
 30
0.0
 11
-2455.134604742847
 21
497.7550550316282
 31
0.0
  0
LINE
  5
F54
330
18
100
AcDbEntity
  8
MADERA
 62
     7
100
AcDbLine
 10
-2455.134604742847
 20
497.7550550316282
 30
0.0
 11
-2455.137074316755
 21
507.1550547072247
 31
0.0
  0
LINE
  5
F55
330
18
100
AcDbEntity
  8
MADERA
 62
     7
100
AcDbLine
 10
-2542.534601726581
 20
497.7320932487046
 30
0.0
 11
-2542.537071300488
 21
507.1320929243002
 31
0.0
  0
LINE
  5
F56
330
18
100
AcDbEntity
  8
MADERA
 62
     7
100
AcDbLine
 10
-2542.537071300488
 20
507.1320929243002
 30
0.0
 11
-2551.937070976083
 21
507.1296233503936
 31
0.0
  0
LINE
  5
F57
330
18
100
AcDbEntity
  8
MADERA
 62
     7
100
AcDbLine
 10
-2542.534601726581
 20
497.7320932487046
 30
0.0
 11
-2551.934601402178
 21
497.729623674797
 31
0.0
  0
LINE
  5
F58
330
18
100
AcDbEntity
  8
MADERA
 62
     7
100
AcDbLine
 10
-2551.934601402178
 20
497.729623674797
 30
0.0
 11
-2551.937070976083
 21
507.1296233503936
 31
0.0
  0
LINE
  5
F59
330
18
100
AcDbEntity
  8
5MM
 62
     7
100
AcDbLine
 10
-2462.901182721767
 20
414.1530117061839
 30
0.0
 11
-2462.900026751001
 21
409.7530118580335
 31
0.0
  0
LINE
  5
F5A
330
18
100
AcDbEntity
  8
5MM
 62
     7
100
AcDbLine
 10
-2462.900026751001
 20
409.7530118580335
 30
0.0
 11
-2477.300026254041
 21
409.7492286809829
 31
0.0
  0
LINE
  5
F5B
330
18
100
AcDbEntity
  8
5MM
 62
     7
100
AcDbLine
 10
-2462.901182721767
 20
414.1530117061839
 30
0.0
 11
-2477.301182224807
 21
414.1492285291342
 31
0.0
  0
LINE
  5
F5C
330
18
100
AcDbEntity
  8
5MM
 62
     7
100
AcDbLine
 10
-2477.301182224807
 20
414.1492285291342
 30
0.0
 11
-2477.300026254041
 21
409.7492286809829
 31
0.0
  0
LINE
  5
F5D
330
18
100
AcDbEntity
  8
5MM
 62
     7
100
AcDbLine
 10
-2520.32409735555
 20
414.1379255214451
 30
0.0
 11
-2520.322941384785
 21
409.7379256732929
 31
0.0
  0
LINE
  5
F5E
330
18
100
AcDbEntity
  8
5MM
 62
     7
100
AcDbLine
 10
-2534.722940887826
 20
409.7341424962442
 30
0.0
 11
-2520.322941384785
 21
409.7379256732929
 31
0.0
  0
LINE
  5
F5F
330
18
100
AcDbEntity
  8
5MM
 62
     7
100
AcDbLine
 10
-2534.724096858591
 20
414.1341423443946
 30
0.0
 11
-2520.32409735555
 21
414.1379255214451
 31
0.0
  0
LINE
  5
F60
330
18
100
AcDbEntity
  8
5MM
 62
     7
100
AcDbLine
 10
-2534.724096858591
 20
414.1341423443946
 30
0.0
 11
-2534.722940887826
 21
409.7341424962442
 31
0.0
  0
LINE
  5
F61
330
18
100
AcDbEntity
  8
5MM
 62
     7
100
AcDbLine
 10
-2468.117444132525
 20
323.6516381634083
 30
0.0
 11
-2468.116288161761
 21
319.2516383152588
 31
0.0
  0
LINE
  5
F62
330
18
100
AcDbEntity
  8
5MM
 62
     7
100
AcDbLine
 10
-2468.116288161761
 20
319.2516383152588
 30
0.0
 11
-2482.516287664801
 21
319.2478551382092
 31
0.0
  0
LINE
  5
F63
330
18
100
AcDbEntity
  8
MADERA
 62
     7
100
AcDbLine
 10
-2482.517443635565
 20
323.6478549863596
 30
0.0
 11
-2468.117444132525
 21
323.6516381634083
 31
0.0
  0
LINE
  5
F64
330
18
100
AcDbEntity
  8
5MM
 62
     7
100
AcDbLine
 10
-2482.517443635565
 20
323.6478549863596
 30
0.0
 11
-2482.516287664801
 21
319.2478551382092
 31
0.0
  0
LINE
  5
F65
330
18
100
AcDbEntity
  8
5MM
 62
     7
100
AcDbLine
 10
-2515.060283511045
 20
323.639305310724
 30
0.0
 11
-2515.059127540282
 21
319.2393054625718
 31
0.0
  0
LINE
  5
F66
330
18
100
AcDbEntity
  8
5MM
 62
     7
100
AcDbLine
 10
-2529.459127043322
 20
319.2355222855222
 30
0.0
 11
-2515.059127540282
 21
319.2393054625709
 31
0.0
  0
LINE
  5
F67
330
18
100
AcDbEntity
  8
5MM
 62
     7
100
AcDbLine
 10
-2529.460283014088
 20
323.6355221336753
 30
0.0
 11
-2529.459127043322
 21
319.2355222855222
 31
0.0
  0
LINE
  5
F68
330
18
100
AcDbEntity
  8
MADERA
 62
     7
100
AcDbLine
 10
-2529.460283014088
 20
323.6355221336753
 30
0.0
 11
-2515.060283511045
 21
323.639305310724
 31
0.0
  0
LINE
  5
F69
330
18
100
AcDbEntity
  8
5MM
 62
     7
100
AcDbLine
 10
-2479.640418937893
 20
233.148607716872
 30
0.0
 11
-2479.639262967128
 21
228.7486078687198
 31
0.0
  0
LINE
  5
F6A
330
18
100
AcDbEntity
  8
5MM
 62
     7
100
AcDbLine
 10
-2479.640418937893
 20
233.148607716872
 30
0.0
 11
-2494.040418440934
 21
233.1448245398215
 31
0.0
  0
LINE
  5
F6B
330
18
100
AcDbEntity
  8
5MM
 62
     7
100
AcDbLine
 10
-2479.639262967128
 20
228.7486078687198
 30
0.0
 11
-2494.039262470169
 21
228.7448246916711
 31
0.0
  0
LINE
  5
F6C
330
18
100
AcDbEntity
  8
5MM
 62
     7
100
AcDbLine
 10
-2494.040418440934
 20
233.1448245398215
 30
0.0
 11
-2494.039262470169
 21
228.7448246916711
 31
0.0
  0
LINE
  5
F6D
330
18
100
AcDbEntity
  8
5MM
 62
     7
100
AcDbLine
 10
-2503.489756271935
 20
233.1423420037627
 30
0.0
 11
-2503.488600301169
 21
228.7423421556114
 31
0.0
  0
LINE
  5
F6E
330
18
100
AcDbEntity
  8
5MM
 62
     7
100
AcDbLine
 10
-2517.889755774976
 20
233.138558826714
 30
0.0
 11
-2503.489756271935
 21
233.1423420037627
 31
0.0
  0
LINE
  5
F6F
330
18
100
AcDbEntity
  8
5MM
 62
     7
100
AcDbLine
 10
-2517.888599804211
 20
228.7385589785636
 30
0.0
 11
-2503.488600301169
 21
228.7423421556114
 31
0.0
  0
LINE
  5
F70
330
18
100
AcDbEntity
  8
5MM
 62
     7
100
AcDbLine
 10
-2517.889755774976
 20
233.138558826714
 30
0.0
 11
-2517.888599804211
 21
228.7385589785636
 31
0.0
  0
LINE
  5
F71
330
18
100
AcDbEntity
  8
5MM
 62
     7
100
AcDbLine
 10
-2491.54718571812
 20
142.6454764402615
 30
0.0
 11
-2491.546029747354
 21
138.2454765921111
 31
0.0
  0
LINE
  5
F72
330
18
100
AcDbEntity
  8
5MM
 62
     7
100
AcDbLine
 10
-2491.546029747354
 20
138.2454765921111
 30
0.0
 11
-2496.940155230917
 21
138.2440594440241
 31
0.0
  0
LINE
  5
F73
330
18
100
AcDbEntity
  8
5MM
 62
     7
100
AcDbLine
 10
-2496.940155230917
 20
138.2440594440241
 30
0.0
 11
-2496.941311201681
 21
142.6440592921763
 31
0.0
  0
LINE
  5
F74
330
18
100
AcDbEntity
  8
5MM
 62
     7
100
AcDbLine
 10
-2491.54718571812
 20
142.6454764402615
 30
0.0
 11
-2496.941311201681
 21
142.6440592921763
 31
0.0
  0
LINE
  5
F75
330
18
100
AcDbEntity
  8
5MM
 62
     7
100
AcDbLine
 10
-2505.935436561006
 20
142.6416963498278
 30
0.0
 11
-2500.541311077442
 21
142.643113497913
 31
0.0
  0
LINE
  5
F76
330
18
100
AcDbEntity
  8
5MM
 62
     7
100
AcDbLine
 10
-2500.540155106677
 20
138.2431136497608
 30
0.0
 11
-2500.541311077442
 21
142.643113497913
 31
0.0
  0
LINE
  5
F77
330
18
100
AcDbEntity
  8
5MM
 62
     7
100
AcDbLine
 10
-2505.93428059024
 20
138.2416965016755
 30
0.0
 11
-2500.540155106677
 21
138.2431136497608
 31
0.0
  0
LINE
  5
F78
330
18
100
AcDbEntity
  8
5MM
 62
     7
100
AcDbLine
 10
-2505.935436561006
 20
142.6416963498278
 30
0.0
 11
-2505.93428059024
 21
138.2416965016755
 31
0.0
  0
LINE
  5
F7A
330
18
100
AcDbEntity
  8
5MM
 62
     7
100
AcDbLine
 10
-2101.683974991715
 20
454.8007927949869
 30
0.0
 11
-2101.680817645189
 21
465.8007923418576
 31
0.0
  0
ARC
  5
F7B
330
18
100
AcDbEntity
  8
5MM
 62
     7
100
AcDbCircle
 10
-364.8651411227236
 20
430.6461250877403
 30
0.0
 40
1736.986790293494
100
AcDbArc
 50
179.2032149400458
 51
195.6343726246313
  0
LINE
  5
F7C
330
18
100
AcDbEntity
  8
MADERA
 62
     7
100
AcDbLine
 10
-2101.680911972129
 20
465.4721631293763
 30
0.0
 11
-2037.529984703682
 21
465.4537497915838
 31
0.0
  0
LINE
  5
F85
330
18
100
AcDbEntity
  8
MADERA
 62
     7
100
AcDbLine
 10
-1973.379054937387
 20
465.4580594050925
 30
0.0
 11
-2037.529984703682
 21
465.4537497915838
 31
0.0
  0
ARC
  5
F86
330
18
100
AcDbEntity
  8
5MM
 62
     7
100
AcDbCircle
 10
-3710.202440394109
 20
431.013865009787
 30
0.0
 40
1736.986790293494
100
AcDbArc
 50
344.3530307708879
 51
0.784188455473417
  0
LINE
  5
F87
330
18
100
AcDbEntity
  8
5MM
 62
     7
100
AcDbLine
 10
-1973.378338042344
 20
454.7866886551923
 30
0.0
 11
-1973.379077014464
 21
465.7866886303694
 31
0.0
  0
TEXT
  5
F9B
330
18
100
AcDbEntity
  8
0
100
AcDbText
 10
-2260.433998671977
 20
99.10246258860047
 30
0.0
 40
10.0
  1
C7
 50
90.0
100
AcDbText
  0
TEXT
  5
F9C
330
18
100
AcDbEntity
  8
0
100
AcDbText
 10
-2226.554740936039
 20
354.1122942206899
 30
0.0
 40
10.0
  1
C5
 50
90.0
100
AcDbText
  0
LINE
  5
FA1
330
18
100
AcDbEntity
  8
5MM
 62
     7
100
AcDbLine
 10
-2181.443320140111
 20
287.7040566316443
 30
0.0
 11
-2118.567609433021
 21
287.7040566316443
 31
0.0
  0
LINE
  5
FA2
330
18
100
AcDbEntity
  8
5MM
 62
     7
100
AcDbLine
 10
-2181.443320140111
 20
277.1040566316444
 30
0.0
 11
-2181.443320140111
 21
287.7040566316443
 31
0.0
  0
LINE
  5
FA3
330
18
100
AcDbEntity
  8
5MM
 62
     7
100
AcDbLine
 10
-2181.443320140111
 20
277.1040566316444
 30
0.0
 11
-2134.574820140111
 21
277.1040566316444
 31
0.0
  0
LINE
  5
FA4
330
18
100
AcDbEntity
  8
5MM
 62
     7
100
AcDbLine
 10
-2134.574820140111
 20
277.1040566316444
 30
0.0
 11
-2134.574820140111
 21
282.1040566316444
 31
0.0
  0
LINE
  5
FA5
330
18
100
AcDbEntity
  8
5MM
 62
     7
100
AcDbLine
 10
-2134.574820140111
 20
282.1040566316444
 30
0.0
 11
-2130.174820140111
 21
282.1040566316444
 31
0.0
  0
LINE
  5
FA6
330
18
100
AcDbEntity
  8
5MM
 62
     7
100
AcDbLine
 10
-2130.174820140111
 20
233.8890566316448
 30
0.0
 11
-2130.174820140111
 21
282.1040566316444
 31
0.0
  0
LINE
  5
FA7
330
18
100
AcDbEntity
  8
5MM
 62
     7
100
AcDbLine
 10
-2130.174820140111
 20
234.497239826266
 30
0.0
 11
-2130.174820140111
 21
186.997239826266
 31
0.0
  0
LINE
  5
FA8
330
18
100
AcDbEntity
  8
5MM
 62
     7
100
AcDbLine
 10
-2134.574820140112
 20
186.997239826266
 30
0.0
 11
-2130.174820140111
 21
186.997239826266
 31
0.0
  0
LINE
  5
FA9
330
18
100
AcDbEntity
  8
5MM
 62
     7
100
AcDbLine
 10
-2134.574820140112
 20
191.997239826266
 30
0.0
 11
-2134.574820140112
 21
186.997239826266
 31
0.0
  0
LINE
  5
FAA
330
18
100
AcDbEntity
  8
5MM
 62
     7
100
AcDbLine
 10
-2181.443320140112
 20
191.997239826266
 30
0.0
 11
-2134.574820140112
 21
191.997239826266
 31
0.0
  0
LINE
  5
FAB
330
18
100
AcDbEntity
  8
5MM
 62
     7
100
AcDbLine
 10
-2181.443320140112
 20
191.997239826266
 30
0.0
 11
-2181.443320140112
 21
181.3972398262661
 31
0.0
  0
LINE
  5
FAC
330
18
100
AcDbEntity
  8
5MM
 62
     7
100
AcDbLine
 10
-2181.443320140112
 20
181.3972398262661
 30
0.0
 11
-2118.5050550386
 21
181.3972398262661
 31
0.0
  0
LINE
  5
FAD
330
18
100
AcDbEntity
  8
5MM
 62
     7
100
AcDbLine
 10
-2113.886011572812
 20
234.1931482289554
 30
0.0
 11
-2118.5050550386
 21
181.3972398262661
 31
0.0
  0
LINE
  5
FAE
330
18
100
AcDbEntity
  8
5MM
 62
     7
100
AcDbLine
 10
-2113.886011572812
 20
234.1931482289554
 30
0.0
 11
-2118.567609433021
 21
287.7040566316443
 31
0.0
  0
LINE
  5
FB9
330
18
100
AcDbEntity
  8
5MM
 62
     7
100
AcDbLine
 10
-2238.837258191098
 20
105.91600801154
 30
0.0
 11
-2243.333266332363
 21
54.52639980324716
 31
0.0
  0
LINE
  5
FBA
330
18
100
AcDbEntity
  8
5MM
 62
     7
100
AcDbLine
 10
-2238.837258191098
 20
105.9683014571885
 30
0.0
 11
-2243.333266332363
 21
157.3579096654814
 31
0.0
  0
LINE
  5
FBB
330
18
100
AcDbEntity
  8
5MM
 62
     7
100
AcDbLine
 10
-2290.461312395378
 20
157.3579096654814
 30
0.0
 11
-2243.333266332363
 21
157.3579096654814
 31
0.0
  0
LINE
  5
FBC
330
18
100
AcDbEntity
  8
5MM
 62
     7
100
AcDbLine
 10
-2290.461312395378
 20
142.3579096654814
 30
0.0
 11
-2290.461312395378
 21
157.3579096654814
 31
0.0
  0
LINE
  5
FBD
330
18
100
AcDbEntity
  8
5MM
 62
     7
100
AcDbLine
 10
-2295.461312395378
 20
142.3579096654814
 30
0.0
 11
-2290.461312395378
 21
142.3579096654814
 31
0.0
  0
LINE
  5
FBE
330
18
100
AcDbEntity
  8
5MM
 62
     7
100
AcDbLine
 10
-2295.461312395378
 20
126.757909665482
 30
0.0
 11
-2295.461312395378
 21
142.3579096654814
 31
0.0
  0
LINE
  5
FBF
330
18
100
AcDbEntity
  8
5MM
 62
     7
100
AcDbLine
 10
-2295.461312395378
 20
126.757909665482
 30
0.0
 11
-2290.461312395378
 21
126.757909665482
 31
0.0
  0
LINE
  5
FC0
330
18
100
AcDbEntity
  8
5MM
 62
     7
100
AcDbLine
 10
-2290.461312395378
 20
106.9861291636473
 30
0.0
 11
-2290.461312395378
 21
126.757909665482
 31
0.0
  0
LINE
  5
FC1
330
18
100
AcDbEntity
  8
5MM
 62
     7
100
AcDbLine
 10
-2290.461312395378
 20
106.9861291636473
 30
0.0
 11
-2285.461312395378
 21
106.9969969129477
 31
0.0
  0
LINE
  5
FC2
330
18
100
AcDbEntity
  8
5MM
 62
     7
100
AcDbLine
 10
-2285.461312395378
 20
104.5966942798507
 30
0.0
 11
-2285.461312395378
 21
106.9969969129477
 31
0.0
  0
LINE
  5
FC3
330
18
100
AcDbEntity
  8
5MM
 62
     7
100
AcDbLine
 10
-2290.461312395378
 20
104.5996963598066
 30
0.0
 11
-2285.461312395378
 21
104.5977497118186
 31
0.0
  0
LINE
  5
FC4
330
18
100
AcDbEntity
  8
5MM
 62
     7
100
AcDbLine
 10
-2290.461312395378
 20
104.5996963598066
 30
0.0
 11
-2290.461312395378
 21
85.12639980324661
 31
0.0
  0
LINE
  5
FC5
330
18
100
AcDbEntity
  8
5MM
 62
     7
100
AcDbLine
 10
-2295.461312395378
 20
85.12639980324661
 30
0.0
 11
-2290.461312395378
 21
85.12639980324661
 31
0.0
  0
LINE
  5
FC6
330
18
100
AcDbEntity
  8
5MM
 62
     7
100
AcDbLine
 10
-2295.461312395378
 20
85.12639980324661
 30
0.0
 11
-2295.461312395378
 21
69.52639980324716
 31
0.0
  0
LINE
  5
FC7
330
18
100
AcDbEntity
  8
5MM
 62
     7
100
AcDbLine
 10
-2295.461312395378
 20
69.52639980324716
 30
0.0
 11
-2290.461312395378
 21
69.52639980324716
 31
0.0
  0
LINE
  5
FC8
330
18
100
AcDbEntity
  8
5MM
 62
     7
100
AcDbLine
 10
-2290.461312395378
 20
69.52639980324716
 30
0.0
 11
-2290.461312395378
 21
54.52639980324716
 31
0.0
  0
LINE
  5
FC9
330
18
100
AcDbEntity
  8
5MM
 62
     7
100
AcDbLine
 10
-2290.461312395378
 20
54.52639980324716
 30
0.0
 11
-2243.333266332363
 21
54.52639980324716
 31
0.0
  0
LINE
  5
FCA
330
18
100
AcDbEntity
  8
5MM
 62
     7
100
AcDbLine
 10
-2220.216489323678
 20
363.0765594613218
 30
0.0
 11
-2220.216489323678
 21
416.7765594613212
 31
0.0
  0
LINE
  5
FCB
330
18
100
AcDbEntity
  8
5MM
 62
     7
100
AcDbLine
 10
-2220.216489323678
 20
363.2816724004838
 30
0.0
 11
-2220.216489323678
 21
309.5816724004845
 31
0.0
  0
LINE
  5
FCC
330
18
100
AcDbEntity
  8
5MM
 62
     7
100
AcDbLine
 10
-2292.096489323678
 20
309.5816724004845
 30
0.0
 11
-2220.216489323678
 21
309.5816724004845
 31
0.0
  0
LINE
  5
FCD
330
18
100
AcDbEntity
  8
5MM
 62
     7
100
AcDbLine
 10
-2292.096489323678
 20
324.5816724004845
 30
0.0
 11
-2292.096489323678
 21
309.5816724004845
 31
0.0
  0
LINE
  5
FCE
330
18
100
AcDbEntity
  8
5MM
 62
     7
100
AcDbLine
 10
-2297.096489323678
 20
324.5816724004845
 30
0.0
 11
-2292.096489323678
 21
324.5816724004845
 31
0.0
  0
LINE
  5
FCF
330
18
100
AcDbEntity
  8
5MM
 62
     7
100
AcDbLine
 10
-2297.096489323678
 20
340.181672400484
 30
0.0
 11
-2297.096489323678
 21
324.5816724004845
 31
0.0
  0
LINE
  5
FD0
330
18
100
AcDbEntity
  8
5MM
 62
     7
100
AcDbLine
 10
-2297.096489323678
 20
340.181672400484
 30
0.0
 11
-2292.096489323678
 21
340.181672400484
 31
0.0
  0
LINE
  5
FD1
330
18
100
AcDbEntity
  8
5MM
 62
     7
100
AcDbLine
 10
-2292.096489323678
 20
361.8765594613216
 30
0.0
 11
-2292.096489323678
 21
340.181672400484
 31
0.0
  0
LINE
  5
FD2
330
18
100
AcDbEntity
  8
5MM
 62
     7
100
AcDbLine
 10
-2292.096489323678
 20
361.8765594613216
 30
0.0
 11
-2287.096489323678
 21
361.8765594613216
 31
0.0
  0
LINE
  5
FD3
330
18
100
AcDbEntity
  8
5MM
 62
     7
100
AcDbLine
 10
-2287.096489323678
 20
364.2765594613221
 30
0.0
 11
-2287.096489323678
 21
361.8765594613216
 31
0.0
  0
LINE
  5
FD4
330
18
100
AcDbEntity
  8
5MM
 62
     7
100
AcDbLine
 10
-2292.096489323678
 20
364.2765594613221
 30
0.0
 11
-2287.096489323678
 21
364.2765594613221
 31
0.0
  0
LINE
  5
FD5
330
18
100
AcDbEntity
  8
5MM
 62
     7
100
AcDbLine
 10
-2292.096489323678
 20
364.2765594613221
 30
0.0
 11
-2292.096489323678
 21
386.1765594613217
 31
0.0
  0
LINE
  5
FD6
330
18
100
AcDbEntity
  8
5MM
 62
     7
100
AcDbLine
 10
-2297.096489323678
 20
386.1765594613217
 30
0.0
 11
-2292.096489323678
 21
386.1765594613217
 31
0.0
  0
LINE
  5
FD7
330
18
100
AcDbEntity
  8
5MM
 62
     7
100
AcDbLine
 10
-2297.096489323678
 20
386.1765594613217
 30
0.0
 11
-2297.096489323678
 21
401.7765594613212
 31
0.0
  0
LINE
  5
FD8
330
18
100
AcDbEntity
  8
5MM
 62
     7
100
AcDbLine
 10
-2297.096489323678
 20
401.7765594613212
 30
0.0
 11
-2292.096489323678
 21
401.7765594613212
 31
0.0
  0
LINE
  5
FD9
330
18
100
AcDbEntity
  8
5MM
 62
     7
100
AcDbLine
 10
-2292.096489323678
 20
401.7765594613212
 30
0.0
 11
-2292.096489323678
 21
416.7765594613212
 31
0.0
  0
LINE
  5
FDA
330
18
100
AcDbEntity
  8
5MM
 62
     7
100
AcDbLine
 10
-2292.096489323678
 20
416.7765594613212
 30
0.0
 11
-2220.216489323678
 21
416.7765594613212
 31
0.0
  0
LINE
  5
FDB
330
18
100
AcDbEntity
  8
5MM
 62
     7
100
AcDbLine
 10
-2281.496489323678
 20
406.1765594613217
 30
0.0
 11
-2250.216489323678
 21
406.1765594613217
 31
0.0
  0
LINE
  5
FDC
330
18
100
AcDbEntity
  8
5MM
 62
     7
100
AcDbLine
 10
-2250.216489323678
 20
406.1765594613217
 30
0.0
 11
-2250.216489323678
 21
411.1765594613217
 31
0.0
  0
LINE
  5
FDD
330
18
100
AcDbEntity
  8
5MM
 62
     7
100
AcDbLine
 10
-2250.216489323678
 20
411.1765594613217
 30
0.0
 11
-2245.816489323678
 21
411.1765594613217
 31
0.0
  0
LINE
  5
FDE
330
18
100
AcDbEntity
  8
5MM
 62
     7
100
AcDbLine
 10
-2245.816489323678
 20
411.1765594613217
 30
0.0
 11
-2245.816489323678
 21
315.1816724004839
 31
0.0
  0
LINE
  5
FDF
330
18
100
AcDbEntity
  8
5MM
 62
     7
100
AcDbLine
 10
-2250.216489323678
 20
315.1816724004839
 30
0.0
 11
-2245.816489323678
 21
315.1816724004839
 31
0.0
  0
LINE
  5
FE0
330
18
100
AcDbEntity
  8
5MM
 62
     7
100
AcDbLine
 10
-2250.216489323678
 20
320.1816724004839
 30
0.0
 11
-2250.216489323678
 21
315.1816724004839
 31
0.0
  0
LINE
  5
FE1
330
18
100
AcDbEntity
  8
5MM
 62
     7
100
AcDbLine
 10
-2281.496489323678
 20
320.181672400484
 30
0.0
 11
-2250.216489323678
 21
320.1816724004839
 31
0.0
  0
LINE
  5
FE2
330
18
100
AcDbEntity
  8
5MM
 62
     7
100
AcDbLine
 10
-2281.496489323678
 20
320.181672400484
 30
0.0
 11
-2281.496489323678
 21
406.1765594613217
 31
0.0
  0
TEXT
  5
1003
330
18
100
AcDbEntity
  8
0
100
AcDbText
 10
-2226.554740936039
 20
473.5757808711091
 30
0.0
 40
10.0
  1
C4
 50
90.0
100
AcDbText
  0
TEXT
  5
1004
330
18
100
AcDbEntity
  8
0
100
AcDbText
 10
-2148.821382922579
 20
218.3134703571018
 30
0.0
 40
10.0
  1
C6b
 50
90.0
100
AcDbText
  0
ARC
  5
1005
330
18
100
AcDbEntity
  8
5MM
 62
     7
100
AcDbCircle
 10
-2219.325196594971
 20
828.7410145347259
 30
0.0
 40
34.04199963672442
100
AcDbArc
 50
109.9065605488929
 51
177.4584210960058
  0
ARC
  5
1006
330
18
100
AcDbEntity
  8
5MM
 62
     7
100
AcDbCircle
 10
-2219.325196594971
 20
892.7569367286798
 30
0.0
 40
34.04199963672486
100
AcDbArc
 50
182.5415789039964
 51
250.0934394511081
  0
LINE
  5
1007
330
18
100
AcDbEntity
  8
5MM
 62
     7
100
AcDbLine
 10
-2284.974795093219
 20
891.0256436991655
 30
0.0
 11
-2284.974795093219
 21
830.4723075642388
 31
0.0
  0
LINE
  5
1008
330
18
100
AcDbEntity
  8
5MM
 62
     7
100
AcDbLine
 10
-2284.974795093219
 20
891.0256436991655
 30
0.0
 11
-2253.323143058144
 21
891.0256436991655
 31
0.0
  0
LINE
  5
1009
330
18
100
AcDbEntity
  8
5MM
 62
     7
100
AcDbLine
 10
-2284.974795093219
 20
830.4723075642388
 30
0.0
 11
-2253.323143058143
 21
830.4723075642388
 31
0.0
  0
TEXT
  5
100A
330
18
100
AcDbEntity
  8
0
100
AcDbText
 10
-2260.034944902579
 20
839.967884871222
 30
0.0
 40
10.0
  1
Block
 50
90.0
100
AcDbText
  0
TEXT
  5
100B
330
18
100
AcDbEntity
  8
0
100
AcDbText
 10
-2046.33487206118
 20
570.020323499825
 30
0.0
 40
10.0
  1
Fondo delantero x 2
 50
90.0
100
AcDbText
  0
TEXT
  5
100C
330
18
100
AcDbEntity
  8
0
100
AcDbText
 10
-2037.435782278214
 20
220.7310495183931
 30
0.0
 40
10.0
  1
Fondo Trasero
 50
90.0
100
AcDbText
  0
ENDSEC
  0
SECTION
  2
OBJECTS
  0
DICTIONARY
  5
C
330
0
100
AcDbDictionary
281
     1
  3
ACAD_DETAILVIEWSTYLE
350
1062
  3
ACAD_GROUP
350
D
  3
ACAD_IMAGE_VARS
350
1058
  3
ACAD_LAYOUT
350
104B
  3
ACAD_MATERIAL
350
104E
  3
ACAD_MLEADERSTYLE
350
1054
  3
ACAD_MLINESTYLE
350
1B
  3
ACAD_PLOTSETTINGS
350
1026
  3
ACAD_PLOTSTYLENAME
350
1027
  3
ACAD_SCALELIST
350
1029
  3
ACAD_SECTIONVIEWSTYLE
350
1063
  3
ACAD_TABLESTYLE
350
1052
  3
ACAD_VISUALSTYLE
350
100D
  3
ACDB_RECOMPOSE_DATA
350
105E
  3
AcDbVariableDictionary
350
1059
  3
APPDATA
350
1056
  0
SUN
  5
1057
330
25
100
AcDbSun
 90
        1
290
     0
 63
     7
421
 16777215
 40
1.0
291
     1
 91
  2455826
 92
 54000000
292
     0
 70
     2
 71
   256
280
     1
  0
DICTIONARY
  5
1062
102
{ACAD_REACTORS
330
C
102
}
330
C
100
AcDbDictionary
281
     1
  0
DICTIONARY
  5
D
102
{ACAD_REACTORS
330
C
102
}
330
C
100
AcDbDictionary
281
     1
  0
RASTERVARIABLES
  5
1058
102
{ACAD_REACTORS
330
C
102
}
330
C
100
AcDbRasterVariables
 90
        0
 70
     1
 71
     1
 72
     0
  0
DICTIONARY
  5
104B
102
{ACAD_REACTORS
330
C
102
}
330
C
100
AcDbDictionary
281
     1
  3
Hoja 1
350
104D
  3
Model
350
104C
  0
DICTIONARY
  5
104E
102
{ACAD_REACTORS
330
C
102
}
330
C
100
AcDbDictionary
281
     1
  3
ByBlock
350
1050
  3
ByLayer
350
104F
  3
Global
350
1051
  0
DICTIONARY
  5
1054
102
{ACAD_REACTORS
330
C
102
}
330
C
100
AcDbDictionary
281
     1
  3
Standard
350
1055
  0
DICTIONARY
  5
1B
102
{ACAD_REACTORS
330
C
102
}
330
C
100
AcDbDictionary
281
     1
  3
STANDARD
350
1C
  0
DICTIONARY
  5
1026
102
{ACAD_REACTORS
330
C
102
}
330
C
100
AcDbDictionary
281
     1
  0
ACDBDICTIONARYWDFLT
  5
1027
102
{ACAD_REACTORS
330
C
102
}
330
C
100
AcDbDictionary
281
     1
  3
Normal
350
1028
100
AcDbDictionaryWithDefault
340
1028
  0
DICTIONARY
  5
1029
102
{ACAD_REACTORS
330
C
102
}
330
C
100
AcDbDictionary
281
     1
  3
A0
350
102A
  3
A1
350
102B
  3
A2
350
102C
  3
A3
350
102D
  3
A4
350
102E
  3
A5
350
102F
  3
A6
350
1030
  3
A7
350
1031
  3
A8
350
1032
  3
A9
350
1033
  3
B0
350
1034
  3
B1
350
1035
  3
B2
350
1036
  3
B3
350
1037
  3
B4
350
1038
  3
B5
350
1039
  3
B6
350
103A
  3
B7
350
103B
  3
B8
350
103C
  3
B9
350
103D
  3
C0
350
103E
  3
C1
350
103F
  3
C2
350
1040
  3
C3
350
1041
  3
C4
350
1042
  3
C5
350
1043
  3
C6
350
1044
  3
C7
350
1045
  3
C8
350
1046
  3
C9
350
1047
  3
D0
350
1048
  3
D1
350
1049
  3
D2
350
104A
  0
DICTIONARY
  5
1063
102
{ACAD_REACTORS
330
C
102
}
330
C
100
AcDbDictionary
281
     1
  0
DICTIONARY
  5
1052
102
{ACAD_REACTORS
330
C
102
}
330
C
100
AcDbDictionary
281
     1
  3
Standard
350
1053
  0
DICTIONARY
  5
100D
102
{ACAD_REACTORS
330
C
102
}
330
C
100
AcDbDictionary
281
     1
  3
2dWireframe
350
1012
  3
Basic
350
1015
  3
Brighten
350
1019
  3
ColorChange
350
101D
  3
Conceptual
350
1017
  3
Dim
350
1018
  3
EdgeColorOff
350
1020
  3
Facepattern
350
101C
  3
Flat
350
100E
  3
FlatWithEdges
350
100F
  3
Gouraud
350
1010
  3
GouraudWithEdges
350
1011
  3
Hidden
350
1014
  3
JitterOff
350
101E
  3
Linepattern
350
101B
  3
OverhangOff
350
101F
  3
Realistic
350
1016
  3
Shaded
350
1025
  3
Shaded with edges
350
1024
  3
Shades of Gray
350
1021
  3
Sketchy
350
1022
  3
Thicken
350
101A
  3
Wireframe
350
1013
  3
X-Ray
350
1023
  0
XRECORD
  5
105E
102
{ACAD_REACTORS
330
C
102
}
330
C
100
AcDbXrecord
280
     1
 90
        1
330
1053
  0
DICTIONARY
  5
1059
102
{ACAD_REACTORS
330
C
102
}
330
C
100
AcDbDictionary
281
     1
  3
CANNOSCALE
350
105A
  3
CMLEADERSTYLE
350
1060
  3
CTABLESTYLE
350
105F
  3
MSLTSCALE
350
1061
  0
DICTIONARY
  5
1056
102
{ACAD_REACTORS
330
C
102
}
330
C
100
AcDbDictionary
281
     1
  0
LAYOUT
  5
104D
102
{ACAD_REACTORS
330
104B
102
}
330
104B
100
AcDbPlotSettings
  1

  2
none_device
  4

  6

 40
0.0
 41
0.0
 42
0.0
 43
0.0
 44
0.0
 45
0.0
 46
0.0
 47
0.0
 48
0.0
 49
0.0
140
0.0
141
0.0
142
1.0
143
1.0
 70
   688
 72
     0
 73
     0
 74
     5
  7

 75
    16
 76
     0
 77
     2
 78
   300
147
1.0
148
0.0
149
0.0
100
AcDbLayout
  1
Hoja 1
 70
     1
 71
     1
 10
0.0
 20
0.0
 11
0.0
 21
0.0
 12
0.0
 22
0.0
 32
0.0
 14
1.000000000000000E+20
 24
1.000000000000000E+20
 34
1.000000000000000E+20
 15
-1.000000000000000E+20
 25
-1.000000000000000E+20
 35
-1.000000000000000E+20
146
0.0
 13
0.0
 23
0.0
 33
0.0
 16
1.0
 26
0.0
 36
0.0
 17
0.0
 27
1.0
 37
0.0
 76
     0
330
15
  0
LAYOUT
  5
104C
102
{ACAD_REACTORS
330
104B
102
}
330
104B
100
AcDbPlotSettings
  1

  2
none_device
  4
Letter_(8.50_x_11.00_Inches)
  6

 40
6.35
 41
6.35
 42
6.35
 43
6.35
 44
215.9
 45
279.4
 46
0.0
 47
0.0
 48
0.0
 49
0.0
140
0.0
141
0.0
142
1.0
143
771.7847227690518
 70
  1712
 72
     0
 73
     0
 74
     0
  7

 75
     0
 76
     0
 77
     2
 78
   300
147
0.0012956981014241
148
132537.5839483194
149
29631.4552405906
100
AcDbLayout
  1
Model
 70
     1
 71
     0
 10
0.0
 20
0.0
 11
12.0
 21
9.0
 12
0.0
 22
0.0
 32
0.0
 14
-2590.546706986222
 24
-831.4924995327432
 34
0.0
 15
684.3457542408935
 25
1027.05027297047
 35
0.0
146
0.0
 13
0.0
 23
0.0
 33
0.0
 16
1.0
 26
0.0
 36
0.0
 17
0.0
 27
1.0
 37
0.0
 76
     0
330
18
331
25
  0
MATERIAL
  5
1050
102
{ACAD_REACTORS
330
104E
102
}
330
104E
100
AcDbMaterial
  1
ByBlock
 72
     1
 94
      127
  0
MATERIAL
  5
104F
102
{ACAD_REACTORS
330
104E
102
}
330
104E
100
AcDbMaterial
  1
ByLayer
 72
     1
 94
      127
  0
MATERIAL
  5
1051
102
{ACAD_REACTORS
330
104E
102
}
330
104E
100
AcDbMaterial
  1
Global
 72
     1
 94
      127
  0
MLEADERSTYLE
  5
1055
102
{ACAD_REACTORS
330
1054
102
}
330
1054
100
AcDbMLeaderStyle
170
     2
171
     1
172
     0
 90
        2
 40
0.0
 41
0.0
173
     1
 91
-1056964608
340
12
 92
       -2
290
     1
 42
0.09
291
     1
 43
0.36
  3
Standard
341
0
 44
0.18
300

342
F
174
     1
178
     1
175
     1
176
     0
 93
-1056964608
 45
0.18
292
     0
297
     0
 46
0.18
343
0
 94
-1056964608
 47
1.0
 49
1.0
140
1.0
293
     1
141
0.0
294
     1
177
     0
142
1.0
295
     0
296
     0
143
0.125
1001
ACAD_MLEADERVER
1070
     2
  0
MLINESTYLE
  5
1C
102
{ACAD_REACTORS
330
1B
102
}
330
1B
100
AcDbMlineStyle
  2
STANDARD
 70
     0
  3

 62
   256
 51
90.0
 52
90.0
 71
     2
 49
0.5
 62
   256
  6
BYLAYER
 49
-0.5
 62
   256
  6
BYLAYER
  0
ACDBPLACEHOLDER
  5
1028
102
{ACAD_REACTORS
330
1027
102
}
330
1027
  0
SCALE
  5
102A
102
{ACAD_REACTORS
330
1029
102
}
330
1029
100
AcDbScale
 70
     0
300
1:1
140
1.0
141
1.0
290
     1
  0
SCALE
  5
102B
102
{ACAD_REACTORS
330
1029
102
}
330
1029
100
AcDbScale
 70
     0
300
1:2
140
1.0
141
2.0
290
     0
  0
SCALE
  5
102C
102
{ACAD_REACTORS
330
1029
102
}
330
1029
100
AcDbScale
 70
     0
300
1:4
140
1.0
141
4.0
290
     0
  0
SCALE
  5
102D
102
{ACAD_REACTORS
330
1029
102
}
330
1029
100
AcDbScale
 70
     0
300
1:5
140
1.0
141
5.0
290
     0
  0
SCALE
  5
102E
102
{ACAD_REACTORS
330
1029
102
}
330
1029
100
AcDbScale
 70
     0
300
1:8
140
1.0
141
8.0
290
     0
  0
SCALE
  5
102F
102
{ACAD_REACTORS
330
1029
102
}
330
1029
100
AcDbScale
 70
     0
300
1:10
140
1.0
141
10.0
290
     0
  0
SCALE
  5
1030
102
{ACAD_REACTORS
330
1029
102
}
330
1029
100
AcDbScale
 70
     0
300
1:16
140
1.0
141
16.0
290
     0
  0
SCALE
  5
1031
102
{ACAD_REACTORS
330
1029
102
}
330
1029
100
AcDbScale
 70
     0
300
1:20
140
1.0
141
20.0
290
     0
  0
SCALE
  5
1032
102
{ACAD_REACTORS
330
1029
102
}
330
1029
100
AcDbScale
 70
     0
300
1:30
140
1.0
141
30.0
290
     0
  0
SCALE
  5
1033
102
{ACAD_REACTORS
330
1029
102
}
330
1029
100
AcDbScale
 70
     0
300
1:40
140
1.0
141
40.0
290
     0
  0
SCALE
  5
1034
102
{ACAD_REACTORS
330
1029
102
}
330
1029
100
AcDbScale
 70
     0
300
1:50
140
1.0
141
50.0
290
     0
  0
SCALE
  5
1035
102
{ACAD_REACTORS
330
1029
102
}
330
1029
100
AcDbScale
 70
     0
300
1:100
140
1.0
141
100.0
290
     0
  0
SCALE
  5
1036
102
{ACAD_REACTORS
330
1029
102
}
330
1029
100
AcDbScale
 70
     0
300
2:1
140
2.0
141
1.0
290
     0
  0
SCALE
  5
1037
102
{ACAD_REACTORS
330
1029
102
}
330
1029
100
AcDbScale
 70
     0
300
4:1
140
4.0
141
1.0
290
     0
  0
SCALE
  5
1038
102
{ACAD_REACTORS
330
1029
102
}
330
1029
100
AcDbScale
 70
     0
300
8:1
140
8.0
141
1.0
290
     0
  0
SCALE
  5
1039
102
{ACAD_REACTORS
330
1029
102
}
330
1029
100
AcDbScale
 70
     0
300
10:1
140
10.0
141
1.0
290
     0
  0
SCALE
  5
103A
102
{ACAD_REACTORS
330
1029
102
}
330
1029
100
AcDbScale
 70
     0
300
100:1
140
100.0
141
1.0
290
     0
  0
SCALE
  5
103B
102
{ACAD_REACTORS
330
1029
102
}
330
1029
100
AcDbScale
 70
     0
300
1/128" = 1'-0"
140
0.0078125
141
12.0
290
     0
  0
SCALE
  5
103C
102
{ACAD_REACTORS
330
1029
102
}
330
1029
100
AcDbScale
 70
     0
300
1/64" = 1'-0"
140
0.015625
141
12.0
290
     0
  0
SCALE
  5
103D
102
{ACAD_REACTORS
330
1029
102
}
330
1029
100
AcDbScale
 70
     0
300
1/32" = 1'-0"
140
0.03125
141
12.0
290
     0
  0
SCALE
  5
103E
102
{ACAD_REACTORS
330
1029
102
}
330
1029
100
AcDbScale
 70
     0
300
1/16" = 1'-0"
140
0.0625
141
12.0
290
     0
  0
SCALE
  5
103F
102
{ACAD_REACTORS
330
1029
102
}
330
1029
100
AcDbScale
 70
     0
300
3/32" = 1'-0"
140
0.09375
141
12.0
290
     0
  0
SCALE
  5
1040
102
{ACAD_REACTORS
330
1029
102
}
330
1029
100
AcDbScale
 70
     0
300
1/8" = 1'-0"
140
0.125
141
12.0
290
     0
  0
SCALE
  5
1041
102
{ACAD_REACTORS
330
1029
102
}
330
1029
100
AcDbScale
 70
     0
300
3/16" = 1'-0"
140
0.1875
141
12.0
290
     0
  0
SCALE
  5
1042
102
{ACAD_REACTORS
330
1029
102
}
330
1029
100
AcDbScale
 70
     0
300
1/4" = 1'-0"
140
0.25
141
12.0
290
     0
  0
SCALE
  5
1043
102
{ACAD_REACTORS
330
1029
102
}
330
1029
100
AcDbScale
 70
     0
300
3/8" = 1'-0"
140
0.375
141
12.0
290
     0
  0
SCALE
  5
1044
102
{ACAD_REACTORS
330
1029
102
}
330
1029
100
AcDbScale
 70
     0
300
1/2" = 1'-0"
140
0.5
141
12.0
290
     0
  0
SCALE
  5
1045
102
{ACAD_REACTORS
330
1029
102
}
330
1029
100
AcDbScale
 70
     0
300
3/4" = 1'-0"
140
0.75
141
12.0
290
     0
  0
SCALE
  5
1046
102
{ACAD_REACTORS
330
1029
102
}
330
1029
100
AcDbScale
 70
     0
300
1" = 1'-0"
140
1.0
141
12.0
290
     0
  0
SCALE
  5
1047
102
{ACAD_REACTORS
330
1029
102
}
330
1029
100
AcDbScale
 70
     0
300
1-1/2" = 1'-0"
140
1.5
141
12.0
290
     0
  0
SCALE
  5
1048
102
{ACAD_REACTORS
330
1029
102
}
330
1029
100
AcDbScale
 70
     0
300
3" = 1'-0"
140
3.0
141
12.0
290
     0
  0
SCALE
  5
1049
102
{ACAD_REACTORS
330
1029
102
}
330
1029
100
AcDbScale
 70
     0
300
6" = 1'-0"
140
6.0
141
12.0
290
     0
  0
SCALE
  5
104A
102
{ACAD_REACTORS
330
1029
102
}
330
1029
100
AcDbScale
 70
     0
300
1'-0" = 1'-0"
140
12.0
141
12.0
290
     0
  0
TABLESTYLE
  5
1053
102
{ACAD_REACTORS
330
1052
102
}
102
{ACAD_XDICTIONARY
360
105B
102
}
330
1052
100
AcDbTableStyle
  3
Standard
 70
     0
 71
     0
 40
0.06
 41
0.06
280
     0
281
     0
  7
STANDARD
140
0.18
170
     2
 62
     0
 63
   257
283
     0
 90
        4
 91
        0
  1

274
    -2
284
     1
 64
     0
275
    -2
285
     1
 65
     0
276
    -2
286
     1
 66
     0
277
    -2
287
     1
 67
     0
278
    -2
288
     1
 68
     0
279
    -2
289
     1
 69
     0
  7
STANDARD
140
0.25
170
     5
 62
     0
 63
   257
283
     0
 90
        4
 91
        0
  1

274
    -2
284
     1
 64
     0
275
    -2
285
     1
 65
     0
276
    -2
286
     1
 66
     0
277
    -2
287
     1
 67
     0
278
    -2
288
     1
 68
     0
279
    -2
289
     1
 69
     0
  7
STANDARD
140
0.18
170
     5
 62
     0
 63
   257
283
     0
 90
        4
 91
        0
  1

274
    -2
284
     1
 64
     0
275
    -2
285
     1
 65
     0
276
    -2
286
     1
 66
     0
277
    -2
287
     1
 67
     0
278
    -2
288
     1
 68
     0
279
    -2
289
     1
 69
     0
  0
VISUALSTYLE
  5
1012
102
{ACAD_REACTORS
330
100D
102
}
330
100D
100
AcDbVisualStyle
  2
2dWireframe
 70
     4
 71
     0
 72
     2
 73
     0
 90
        0
 40
0.6
 41
30.0
 62
     5
 63
     7
421
 16777215
 74
     1
 91
        4
 64
     7
 65
   257
 75
     1
175
     1
 42
1.0
 92
        0
 66
   257
 43
1.0
 76
     1
 77
     6
 78
     2
 67
     7
 79
     5
170
     0
171
     0
290
     0
174
     0
 93
        1
 44
0.0
173
     0
291
     0
 45
0.0
  0
VISUALSTYLE
  5
1015
102
{ACAD_REACTORS
330
100D
102
}
330
100D
100
AcDbVisualStyle
  2
Basic
 70
     7
 71
     1
 72
     0
 73
     1
 90
        0
 40
0.6
 41
30.0
 62
     5
 63
     7
421
 16777215
 74
     0
 91
        4
 64
     7
 65
   257
 75
     1
175
     1
 42
1.0
 92
        8
 66
     7
 43
1.0
 76
     1
 77
     6
 78
     2
 67
     7
 79
     5
170
     0
171
     0
290
     0
174
     0
 93
        1
 44
0.0
173
     0
291
     1
 45
0.0
  0
VISUALSTYLE
  5
1019
102
{ACAD_REACTORS
330
100D
102
}
330
100D
100
AcDbVisualStyle
  2
Brighten
 70
    12
 71
     2
 72
     2
 73
     0
 90
        0
 40
0.6
 41
30.0
 62
     5
 63
     7
421
 16777215
 74
     1
 91
        4
 64
     7
 65
   257
 75
     1
175
     1
 42
1.0
 92
        8
 66
     7
 43
1.0
 76
     1
 77
     6
 78
     2
 67
     7
 79
     5
170
     0
171
     0
290
     0
174
     0
 93
        1
 44
50.0
173
     0
291
     1
 45
0.0
  0
VISUALSTYLE
  5
101D
102
{ACAD_REACTORS
330
100D
102
}
330
100D
100
AcDbVisualStyle
  2
ColorChange
 70
    16
 71
     2
 72
     2
 73
     3
 90
        0
 40
0.6
 41
30.0
 62
     5
 63
     8
421
  8421504
 74
     1
 91
        4
 64
     7
 65
   257
 75
     1
175
     1
 42
1.0
 92
        8
 66
     8
424
  8421504
 43
1.0
 76
     1
 77
     6
 78
     2
 67
     7
 79
     5
170
     0
171
     0
290
     0
174
     0
 93
        1
 44
0.0
173
     0
291
     1
 45
0.0
  0
VISUALSTYLE
  5
1017
102
{ACAD_REACTORS
330
100D
102
}
330
100D
100
AcDbVisualStyle
  2
Conceptual
 70
     9
 71
     3
 72
     2
 73
     0
 90
        0
 40
0.6
 41
30.0
 62
     5
 63
     7
421
 16777215
 74
     2
 91
        2
 64
     7
 65
   257
 75
     1
175
     1
 42
179.0
 92
        8
 66
     7
 43
1.0
 76
     1
 77
     6
 78
     2
 67
     7
 79
     3
170
     0
171
     0
290
     0
174
     0
 93
        1
 44
0.0
173
     0
291
     0
 45
0.0
  0
VISUALSTYLE
  5
1018
102
{ACAD_REACTORS
330
100D
102
}
330
100D
100
AcDbVisualStyle
  2
Dim
 70
    11
 71
     2
 72
     2
 73
     0
 90
        0
 40
0.6
 41
30.0
 62
     5
 63
     7
421
 16777215
 74
     1
 91
        4
 64
     7
 65
   257
 75
     1
175
     1
 42
1.0
 92
        8
 66
     7
 43
1.0
 76
     1
 77
     6
 78
     2
 67
     7
 79
     5
170
     0
171
     0
290
     0
174
     0
 93
        1
 44
-50.0
173
     0
291
     1
 45
0.0
  0
VISUALSTYLE
  5
1020
102
{ACAD_REACTORS
330
100D
102
}
330
100D
100
AcDbVisualStyle
  2
EdgeColorOff
 70
    22
 71
     2
 72
     2
 73
     0
 90
        0
 40
0.6
 41
30.0
 62
     5
 63
     7
421
 16777215
 74
     1
 91
        4
 64
     7
 65
   257
 75
     1
175
     1
 42
1.0
 92
        8
 66
     7
 43
1.0
 76
     1
 77
     6
 78
     2
 67
     7
 79
     5
170
     0
171
     0
290
     0
174
     0
 93
        1
 44
0.0
173
     0
291
     1
 45
0.0
  0
VISUALSTYLE
  5
101C
102
{ACAD_REACTORS
330
100D
102
}
330
100D
100
AcDbVisualStyle
  2
Facepattern
 70
    15
 71
     2
 72
     2
 73
     0
 90
        0
 40
0.6
 41
30.0
 62
     5
 63
     7
421
 16777215
 74
     1
 91
        4
 64
     7
 65
   257
 75
     1
175
     1
 42
1.0
 92
        8
 66
     7
 43
1.0
 76
     1
 77
     6
 78
     2
 67
     7
 79
     5
170
     0
171
     0
290
     0
174
     0
 93
        1
 44
0.0
173
     0
291
     1
 45
0.0
  0
VISUALSTYLE
  5
100E
102
{ACAD_REACTORS
330
100D
102
}
330
100D
100
AcDbVisualStyle
  2
Flat
 70
     0
 71
     2
 72
     1
 73
     1
 90
        2
 40
0.6
 41
30.0
 62
     5
 63
     7
421
 16777215
 74
     0
 91
        0
 64
     7
 65
   257
 75
     1
175
     1
 42
1.0
 92
        8
 66
     7
 43
1.0
 76
     1
 77
     6
 78
     2
 67
     7
 79
     5
170
     0
171
     0
290
     0
174
     0
 93
       13
 44
0.0
173
     0
291
     1
 45
0.0
  0
VISUALSTYLE
  5
100F
102
{ACAD_REACTORS
330
100D
102
}
330
100D
100
AcDbVisualStyle
  2
FlatWithEdges
 70
     1
 71
     2
 72
     1
 73
     1
 90
        2
 40
0.6
 41
30.0
 62
     5
 63
     7
421
 16777215
 74
     1
 91
        0
 64
     7
 65
   257
 75
     1
175
     1
 42
1.0
 92
        0
 66
   257
 43
1.0
 76
     1
 77
     6
 78
     2
 67
     7
 79
     5
170
     0
171
     0
290
     0
174
     0
 93
       13
 44
0.0
173
     0
291
     1
 45
0.0
  0
VISUALSTYLE
  5
1010
102
{ACAD_REACTORS
330
100D
102
}
330
100D
100
AcDbVisualStyle
  2
Gouraud
 70
     2
 71
     2
 72
     2
 73
     1
 90
        2
 40
0.6
 41
30.0
 62
     5
 63
     7
421
 16777215
 74
     0
 91
        0
 64
     7
 65
   257
 75
     1
175
     1
 42
1.0
 92
        0
 66
     7
 43
1.0
 76
     1
 77
     6
 78
     2
 67
     7
 79
     5
170
     0
171
     0
290
     0
174
     0
 93
       13
 44
0.0
173
     0
291
     1
 45
0.0
  0
VISUALSTYLE
  5
1011
102
{ACAD_REACTORS
330
100D
102
}
330
100D
100
AcDbVisualStyle
  2
GouraudWithEdges
 70
     3
 71
     2
 72
     2
 73
     1
 90
        2
 40
0.6
 41
30.0
 62
     5
 63
     7
421
 16777215
 74
     1
 91
        0
 64
     7
 65
   257
 75
     1
175
     1
 42
1.0
 92
        0
 66
   257
 43
1.0
 76
     1
 77
     6
 78
     2
 67
     7
 79
     5
170
     0
171
     0
290
     0
174
     0
 93
       13
 44
0.0
173
     0
291
     1
 45
0.0
  0
VISUALSTYLE
  5
1014
102
{ACAD_REACTORS
330
100D
102
}
330
100D
100
AcDbVisualStyle
  2
Hidden
 70
     6
 71
     1
 72
     2
 73
     2
 90
        0
 40
0.6
 41
30.0
 62
     5
 63
     7
421
 16777215
 74
     2
 91
        2
 64
     7
 65
   257
 75
     2
175
     1
 42
40.0
 92
        0
 66
   257
 43
1.0
 76
     1
 77
     6
 78
     2
 67
     7
 79
     3
170
     0
171
     0
290
     0
174
     0
 93
        1
 44
0.0
173
     0
291
     0
 45
0.0
  0
VISUALSTYLE
  5
101E
102
{ACAD_REACTORS
330
100D
102
}
330
100D
100
AcDbVisualStyle
  2
JitterOff
 70
    20
 71
     2
 72
     2
 73
     0
 90
        0
 40
0.6
 41
30.0
 62
     5
 63
     7
421
 16777215
 74
     1
 91
        4
 64
     7
 65
   257
 75
     1
175
     1
 42
1.0
 92
       10
 66
     7
 43
1.0
 76
     1
 77
     6
 78
     2
 67
     7
 79
     5
170
     0
171
     0
290
     0
174
     0
 93
        1
 44
0.0
173
     0
291
     1
 45
0.0
  0
VISUALSTYLE
  5
101B
102
{ACAD_REACTORS
330
100D
102
}
330
100D
100
AcDbVisualStyle
  2
Linepattern
 70
    14
 71
     2
 72
     2
 73
     0
 90
        0
 40
0.6
 41
30.0
 62
     5
 63
     7
421
 16777215
 74
     1
 91
        4
 64
     7
 65
   257
 75
     7
175
     7
 42
1.0
 92
        8
 66
     7
 43
1.0
 76
     1
 77
     6
 78
     2
 67
     7
 79
     5
170
     0
171
     0
290
     0
174
     0
 93
        1
 44
0.0
173
     0
291
     1
 45
0.0
  0
VISUALSTYLE
  5
101F
102
{ACAD_REACTORS
330
100D
102
}
330
100D
100
AcDbVisualStyle
  2
OverhangOff
 70
    21
 71
     2
 72
     2
 73
     0
 90
        0
 40
0.6
 41
30.0
 62
     5
 63
     7
421
 16777215
 74
     1
 91
        4
 64
     7
 65
   257
 75
     1
175
     1
 42
1.0
 92
        9
 66
     7
 43
1.0
 76
     1
 77
     6
 78
     2
 67
     7
 79
     5
170
     0
171
     0
290
     0
174
     0
 93
        1
 44
0.0
173
     0
291
     1
 45
0.0
  0
VISUALSTYLE
  5
1016
102
{ACAD_REACTORS
330
100D
102
}
330
100D
100
AcDbVisualStyle
  2
Realistic
 70
     8
 71
     2
 72
     3
 73
     0
 90
        2
 40
0.6
 41
30.0
 62
     5
 63
     7
421
 16777215
 74
     0
 91
        0
 64
     7
 65
   257
 75
     1
175
     1
 42
1.0
 92
        8
 66
   257
 43
1.0
 76
     1
 77
     6
 78
     2
 67
     7
 79
     3
170
     0
171
     0
290
     0
174
     0
 93
       13
 44
0.0
173
     0
291
     0
 45
0.0
  0
VISUALSTYLE
  5
1025
102
{ACAD_REACTORS
330
100D
102
}
330
100D
100
AcDbVisualStyle
  2
Shaded
 70
    27
 71
     2
 72
     2
 73
     1
 90
        2
 40
0.6
 41
30.0
 62
     5
 63
     7
421
 16777215
 74
     0
 91
        4
 64
     7
 65
   257
 75
     1
175
     1
 42
1.0
 92
        8
 66
   257
 43
1.0
 76
     1
 77
     6
 78
     2
 67
     8
425
  7895160
 79
     3
170
     0
171
     0
290
     0
174
     0
 93
        5
 44
0.0
173
     0
291
     0
 45
0.0
  0
VISUALSTYLE
  5
1024
102
{ACAD_REACTORS
330
100D
102
}
330
100D
100
AcDbVisualStyle
  2
Shaded with edges
 70
    26
 71
     2
 72
     2
 73
     1
 90
        2
 40
0.6
 41
30.0
 62
     5
 63
     7
421
 16777215
 74
     1
 91
       10
 64
     7
 65
   257
 75
     2
175
     1
 42
1.0
 92
        8
 66
   257
 43
1.0
 76
     1
 77
     6
 78
     2
 67
     7
 79
     3
170
     0
171
     0
290
     0
174
     0
 93
        5
 44
0.0
173
     0
291
     0
 45
0.0
  0
VISUALSTYLE
  5
1021
102
{ACAD_REACTORS
330
100D
102
}
330
100D
100
AcDbVisualStyle
  2
Shades of Gray
 70
    23
 71
     2
 72
     2
 73
     3
 90
        0
 40
0.6
 41
30.0
 62
     5
 63
     7
421
 16777215
 74
     2
 91
        2
 64
     7
 65
     7
 75
     1
175
     1
 42
40.0
 92
        8
 66
     7
 43
1.0
 76
     1
 77
     6
 78
     2
 67
     7
 79
     3
170
     0
171
     0
290
     0
174
     0
 93
        1
 44
0.0
173
     0
291
     0
 45
0.0
  0
VISUALSTYLE
  5
1022
102
{ACAD_REACTORS
330
100D
102
}
330
100D
100
AcDbVisualStyle
  2
Sketchy
 70
    24
 71
     1
 72
     2
 73
     2
 90
        0
 40
0.6
 41
30.0
 62
     5
 63
     7
421
 16777215
 74
     2
 91
        2
 64
     7
 65
     7
 75
     1
175
     1
 42
40.0
 92
       11
 66
     7
 43
1.0
 76
     1
 77
     6
 78
     2
 67
     7
 79
     6
170
     0
171
     0
290
     0
174
     0
 93
        1
 44
0.0
173
     0
291
     0
 45
0.0
  0
VISUALSTYLE
  5
101A
102
{ACAD_REACTORS
330
100D
102
}
330
100D
100
AcDbVisualStyle
  2
Thicken
 70
    13
 71
     2
 72
     2
 73
     0
 90
        0
 40
0.6
 41
30.0
 62
     5
 63
     7
421
 16777215
 74
     1
 91
        4
 64
     7
 65
   257
 75
     1
175
     1
 42
1.0
 92
       12
 66
     7
 43
1.0
 76
     1
 77
     6
 78
     2
 67
     7
 79
     5
170
     0
171
     0
290
     0
174
     0
 93
        1
 44
0.0
173
     0
291
     1
 45
0.0
  0
VISUALSTYLE
  5
1013
102
{ACAD_REACTORS
330
100D
102
}
330
100D
100
AcDbVisualStyle
  2
Wireframe
 70
     5
 71
     0
 72
     2
 73
     0
 90
        0
 40
0.6
 41
30.0
 62
     5
 63
     7
421
 16777215
 74
     1
 91
        4
 64
     7
 65
   257
 75
     1
175
     1
 42
1.0
 92
        0
 66
   257
 43
1.0
 76
     1
 77
     6
 78
     2
 67
     7
 79
     3
170
     0
171
     0
290
     0
174
     0
 93
        1
 44
0.0
173
     0
291
     0
 45
0.0
  0
VISUALSTYLE
  5
1023
102
{ACAD_REACTORS
330
100D
102
}
330
100D
100
AcDbVisualStyle
  2
X-Ray
 70
    25
 71
     2
 72
     2
 73
     1
 90
        1
 40
0.5
 41
30.0
 62
     5
 63
     7
421
 16777215
 74
     1
 91
        0
 64
     7
 65
   257
 75
     1
175
     1
 42
1.0
 92
        8
 66
     7
 43
1.0
 76
     1
 77
     6
 78
     2
 67
     7
 79
     3
170
     0
171
     0
290
     0
174
     0
 93
       13
 44
0.0
173
     0
291
     0
 45
0.0
  0
DICTIONARYVAR
  5
105A
102
{ACAD_REACTORS
330
1059
102
}
330
1059
100
DictionaryVariables
280
     0
  1
1:1
  0
DICTIONARYVAR
  5
1060
102
{ACAD_REACTORS
330
1059
102
}
330
1059
100
DictionaryVariables
280
     0
  1
Standard
  0
DICTIONARYVAR
  5
105F
102
{ACAD_REACTORS
330
1059
102
}
330
1059
100
DictionaryVariables
280
     0
  1
Standard
  0
DICTIONARYVAR
  5
1061
102
{ACAD_REACTORS
330
1059
102
}
330
1059
100
DictionaryVariables
280
     0
  1
0
  0
DICTIONARY
  5
105B
330
1053
100
AcDbDictionary
280
     1
281
     1
  3
ACAD_ROUNDTRIP_2008_TABLESTYLE_CELLSTYLEMAP
360
105C
  0
CELLSTYLEMAP
  5
105C
102
{ACAD_REACTORS
330
105B
102
}
330
105B
100
AcDbCellStyleMap
 90
        3
300
CELLSTYLE
  1
TABLEFORMAT_BEGIN
 90
        5
170
     1
 91
        0
 92
    32768
 62
   257
 93
        1
300
CONTENTFORMAT
  1
CONTENTFORMAT_BEGIN
 90
        0
 91
        0
 92
        4
 93
        0
300

 40
0.0
140
1.0
 94
        5
 62
     0
340
F
144
0.25
309
CONTENTFORMAT_END
171
     1
301
MARGIN
  1
CELLMARGIN_BEGIN
 40
0.06
 40
0.06
 40
0.06
 40
0.06
 40
0.06
 40
0.06
309
CELLMARGIN_END
 94
        6
 95
        1
302
GRIDFORMAT
  1
GRIDFORMAT_BEGIN
 90
        0
 91
        1
 62
     0
 92
       -2
340
12
 93
        0
 40
0.045
309
GRIDFORMAT_END
 95
        2
302
GRIDFORMAT
  1
GRIDFORMAT_BEGIN
 90
        0
 91
        1
 62
     0
 92
       -2
340
12
 93
        0
 40
0.045
309
GRIDFORMAT_END
 95
        4
302
GRIDFORMAT
  1
GRIDFORMAT_BEGIN
 90
        0
 91
        1
 62
     0
 92
       -2
340
12
 93
        0
 40
0.045
309
GRIDFORMAT_END
 95
        8
302
GRIDFORMAT
  1
GRIDFORMAT_BEGIN
 90
        0
 91
        1
 62
     0
 92
       -2
340
12
 93
        0
 40
0.045
309
GRIDFORMAT_END
 95
       16
302
GRIDFORMAT
  1
GRIDFORMAT_BEGIN
 90
        0
 91
        1
 62
     0
 92
       -2
340
12
 93
        0
 40
0.045
309
GRIDFORMAT_END
 95
       32
302
GRIDFORMAT
  1
GRIDFORMAT_BEGIN
 90
        0
 91
        1
 62
     0
 92
       -2
340
12
 93
        0
 40
0.045
309
GRIDFORMAT_END
309
TABLEFORMAT_END
  1
CELLSTYLE_BEGIN
 90
        1
 91
        1
300
_TITLE
309
CELLSTYLE_END
300
CELLSTYLE
  1
TABLEFORMAT_BEGIN
 90
        5
170
     1
 91
        0
 92
        0
 62
   257
 93
        1
300
CONTENTFORMAT
  1
CONTENTFORMAT_BEGIN
 90
        0
 91
        0
 92
        4
 93
        0
300

 40
0.0
140
1.0
 94
        5
 62
     0
340
F
144
0.18
309
CONTENTFORMAT_END
171
     1
301
MARGIN
  1
CELLMARGIN_BEGIN
 40
0.06
 40
0.06
 40
0.06
 40
0.06
 40
0.06
 40
0.06
309
CELLMARGIN_END
 94
        6
 95
        1
302
GRIDFORMAT
  1
GRIDFORMAT_BEGIN
 90
        0
 91
        1
 62
     0
 92
       -2
340
12
 93
        0
 40
0.045
309
GRIDFORMAT_END
 95
        2
302
GRIDFORMAT
  1
GRIDFORMAT_BEGIN
 90
        0
 91
        1
 62
     0
 92
       -2
340
12
 93
        0
 40
0.045
309
GRIDFORMAT_END
 95
        4
302
GRIDFORMAT
  1
GRIDFORMAT_BEGIN
 90
        0
 91
        1
 62
     0
 92
       -2
340
12
 93
        0
 40
0.045
309
GRIDFORMAT_END
 95
        8
302
GRIDFORMAT
  1
GRIDFORMAT_BEGIN
 90
        0
 91
        1
 62
     0
 92
       -2
340
12
 93
        0
 40
0.045
309
GRIDFORMAT_END
 95
       16
302
GRIDFORMAT
  1
GRIDFORMAT_BEGIN
 90
        0
 91
        1
 62
     0
 92
       -2
340
12
 93
        0
 40
0.045
309
GRIDFORMAT_END
 95
       32
302
GRIDFORMAT
  1
GRIDFORMAT_BEGIN
 90
        0
 91
        1
 62
     0
 92
       -2
340
12
 93
        0
 40
0.045
309
GRIDFORMAT_END
309
TABLEFORMAT_END
  1
CELLSTYLE_BEGIN
 90
        2
 91
        1
300
_HEADER
309
CELLSTYLE_END
300
CELLSTYLE
  1
TABLEFORMAT_BEGIN
 90
        5
170
     1
 91
        0
 92
        0
 62
   257
 93
        1
300
CONTENTFORMAT
  1
CONTENTFORMAT_BEGIN
 90
        0
 91
        0
 92
        4
 93
        0
300

 40
0.0
140
1.0
 94
        2
 62
     0
340
F
144
0.18
309
CONTENTFORMAT_END
171
     1
301
MARGIN
  1
CELLMARGIN_BEGIN
 40
0.06
 40
0.06
 40
0.06
 40
0.06
 40
0.06
 40
0.06
309
CELLMARGIN_END
 94
        6
 95
        1
302
GRIDFORMAT
  1
GRIDFORMAT_BEGIN
 90
        0
 91
        1
 62
     0
 92
       -2
340
12
 93
        0
 40
0.045
309
GRIDFORMAT_END
 95
        2
302
GRIDFORMAT
  1
GRIDFORMAT_BEGIN
 90
        0
 91
        1
 62
     0
 92
       -2
340
12
 93
        0
 40
0.045
309
GRIDFORMAT_END
 95
        4
302
GRIDFORMAT
  1
GRIDFORMAT_BEGIN
 90
        0
 91
        1
 62
     0
 92
       -2
340
12
 93
        0
 40
0.045
309
GRIDFORMAT_END
 95
        8
302
GRIDFORMAT
  1
GRIDFORMAT_BEGIN
 90
        0
 91
        1
 62
     0
 92
       -2
340
12
 93
        0
 40
0.045
309
GRIDFORMAT_END
 95
       16
302
GRIDFORMAT
  1
GRIDFORMAT_BEGIN
 90
        0
 91
        1
 62
     0
 92
       -2
340
12
 93
        0
 40
0.045
309
GRIDFORMAT_END
 95
       32
302
GRIDFORMAT
  1
GRIDFORMAT_BEGIN
 90
        0
 91
        1
 62
     0
 92
       -2
340
12
 93
        0
 40
0.045
309
GRIDFORMAT_END
309
TABLEFORMAT_END
  1
CELLSTYLE_BEGIN
 90
        3
 91
        2
300
_DATA
309
CELLSTYLE_END
  0
ENDSEC
  0
EOF
