  0
SECTION
  2
HEADER
  9
$ACADVER
  1
AC1015
  9
$ACADMAINTVER
 70
     6
  9
$DWGCODEPAGE
  3
ANSI_932
  9
$INSBASE
 10
0.0
 20
0.0
 30
0.0
  9
$EXTMIN
 10
20.30901
 20
-2589.918056
 30
1.000000E+20
  9
$EXTMAX
 10
380.862196
 20
3189.640278
 30
-1.000000E+20
  9
$LIMMIN
 10
20.30901
 20
-2589.918056
  9
$LIMMAX
 10
380.862196
 20
3189.640278
  9
$ORTHOMODE
 70
     0
  9
$REGENMODE
 70
     1
  9
$FILLMODE
 70
     1
  9
$QTEXTMODE
 70
     0
  9
$MIRRTEXT
 70
     1
  9
$LTSCALE
 40
1.0
  9
$ATTMODE
 70
     1
  9
$TEXTSIZE
 40
0.2
  9
$TRACEWID
 40
0.05
  9
$TEXTSTYLE
  7
Standard
  9
$CLAYER
  8
0
  9
$CELTYPE
  6
Continuous
  9
$CECOLOR
 62
   256
  9
$CELTSCALE
 40
1.0
  9
$DISPSILH
 70
     0
  9
$DIMSCALE
 40
1.0
  9
$DIMASZ
 40
0.18
  9
$DIMEXO
 40
0.0625
  9
$DIMDLI
 40
0.38
  9
$DIMRND
 40
0.0
  9
$DIMDLE
 40
0.0
  9
$DIMEXE
 40
0.18
  9
$DIMTP
 40
0.0
  9
$DIMTM
 40
0.0
  9
$DIMTXT
 40
0.18
  9
$DIMCEN
 40
0.09
  9
$DIMTSZ
 40
0.0
  9
$DIMTOL
 70
     0
  9
$DIMLIM
 70
     0
  9
$DIMTIH
 70
     1
  9
$DIMTOH
 70
     1
  9
$DIMSE1
 70
     0
  9
$DIMSE2
 70
     0
  9
$DIMTAD
 70
     0
  9
$DIMZIN
 70
     0
  9
$DIMBLK
  1

  9
$DIMASO
 70
     1
  9
$DIMSHO
 70
     1
  9
$DIMPOST
  1

  9
$DIMAPOST
  1

  9
$DIMALT
 70
     0
  9
$DIMALTD
 70
     2
  9
$DIMALTF
 40
25.4
  9
$DIMLFAC
 40
1.0
  9
$DIMTOFL
 70
     0
  9
$DIMTVP
 40
0.0
  9
$DIMTIX
 70
     0
  9
$DIMSOXD
 70
     0
  9
$DIMSAH
 70
     0
  9
$DIMBLK1
  1

  9
$DIMBLK2
  1

  9
$DIMSTYLE
  2
Standard
  9
$DIMCLRD
 70
     0
  9
$DIMCLRE
 70
     0
  9
$DIMCLRT
 70
     0
  9
$DIMTFAC
 40
1.0
  9
$DIMGAP
 40
0.09
  9
$DIMJUST
 70
     0
  9
$DIMSD1
 70
     0
  9
$DIMSD2
 70
     0
  9
$DIMTOLJ
 70
     1
  9
$DIMTZIN
 70
     0
  9
$DIMALTZ
 70
     0
  9
$DIMALTTZ
 70
     0
  9
$DIMUPT
 70
     0
  9
$DIMDEC
 70
     4
  9
$DIMTDEC
 70
     4
  9
$DIMALTU
 70
     2
  9
$DIMALTTD
 70
     2
  9
$DIMTXSTY
  7
Standard
  9
$DIMAUNIT
 70
     0
  9
$DIMADEC
 70
     0
  9
$DIMALTRND
 40
0.0
  9
$DIMAZIN
 70
     0
  9
$DIMDSEP
 70
     0
  9
$DIMATFIT
 70
     3
  9
$DIMFRAC
 70
     0
  9
$DIMLDRBLK
  1

  9
$DIMLUNIT
 70
     2
  9
$DIMLWD
 70
     0
  9
$DIMLWE
 70
     0
  9
$DIMTMOVE
 70
     0
  9
$LUNITS
 70
     2
  9
$LUPREC
 70
     4
  9
$SKETCHINC
 40
0.1
  9
$FILLETRAD
 40
0.0
  9
$AUNITS
 70
     0
  9
$AUPREC
 70
     0
  9
$MENU
  1
acad
  9
$ELEVATION
 40
0.0
  9
$PELEVATION
 40
0.0
  9
$THICKNESS
 40
0.0
  9
$LIMCHECK
 70
     0
  9
$CHAMFERA
 40
0.0
  9
$CHAMFERB
 40
0.0
  9
$CHAMFERC
 40
0.0
  9
$CHAMFERD
 40
0.0
  9
$SKPOLY
 70
     0
  9
$TDCREATE
 40
0.000000000
  9
$TDUCREATE
 40
0.000000000
  9
$TDUPDATE
 40
0.000000000
  9
$TDUUPDATE
 40
0.000000000
  9
$TDINDWG
 40
0.0000000000
  9
$TDUSRTIMER
 40
0.0000000000
  9
$USRTIMER
 70
     1
  9
$ANGBASE
 50
0.0
  9
$ANGDIR
 70
     0
  9
$PDMODE
 70
     0
  9
$PDSIZE
 40
0.0
  9
$PLINEWID
 40
0.0
  9
$SPLFRAME
 70
     0
  9
$SPLINETYPE
 70
     6
  9
$SPLINESEGS
 70
     8
  9
$HANDSEED
  5
3F
  9
$SURFTAB1
 70
     6
  9
$SURFTAB2
 70
     6
  9
$SURFTYPE
 70
     6
  9
$SURFU
 70
     6
  9
$SURFV
 70
     6
  9
$UCSBASE
  2

  9
$UCSNAME
  2

  9
$UCSORG
 10
0.0
 20
0.0
 30
0.0
  9
$UCSXDIR
 10
1.0
 20
0.0
 30
0.0
  9
$UCSYDIR
 10
0.0
 20
1.0
 30
0.0
  9
$UCSORTHOREF
  2

  9
$UCSORTHOVIEW
 70
     0
  9
$UCSORGTOP
 10
0.0
 20
0.0
 30
0.0
  9
$UCSORGBOTTOM
 10
0.0
 20
0.0
 30
0.0
  9
$UCSORGLEFT
 10
0.0
 20
0.0
 30
0.0
  9
$UCSORGRIGHT
 10
0.0
 20
0.0
 30
0.0
  9
$UCSORGFRONT
 10
0.0
 20
0.0
 30
0.0
  9
$UCSORGBACK
 10
0.0
 20
0.0
 30
0.0
  9
$PUCSBASE
  2

  9
$PUCSNAME
  2

  9
$PUCSORG
 10
0.0
 20
0.0
 30
0.0
  9
$PUCSXDIR
 10
1.0
 20
0.0
 30
0.0
  9
$PUCSYDIR
 10
0.0
 20
1.0
 30
0.0
  9
$PUCSORTHOREF
  2

  9
$PUCSORTHOVIEW
 70
     0
  9
$PUCSORGTOP
 10
0.0
 20
0.0
 30
0.0
  9
$PUCSORGBOTTOM
 10
0.0
 20
0.0
 30
0.0
  9
$PUCSORGLEFT
 10
0.0
 20
0.0
 30
0.0
  9
$PUCSORGRIGHT
 10
0.0
 20
0.0
 30
0.0
  9
$PUCSORGFRONT
 10
0.0
 20
0.0
 30
0.0
  9
$PUCSORGBACK
 10
0.0
 20
0.0
 30
0.0
  9
$USERI1
 70
     0
  9
$USERI2
 70
     0
  9
$USERI3
 70
     0
  9
$USERI4
 70
     0
  9
$USERI5
 70
     0
  9
$USERR1
 40
0.0
  9
$USERR2
 40
0.0
  9
$USERR3
 40
0.0
  9
$USERR4
 40
0.0
  9
$USERR5
 40
0.0
  9
$WORLDVIEW
 70
     1
  9
$SHADEDGE
 70
     3
  9
$SHADEDIF
 70
    70
  9
$TILEMODE
 70
     1
  9
$MAXACTVP
 70
    16
  9
$PINSBASE
 10
0.0
 20
0.0
 30
0.0
  9
$PLIMCHECK
 70
     0
  9
$PEXTMIN
 10
1.000000E+20
 20
1.000000E+20
 30
1.000000E+20
  9
$PEXTMAX
 10
-1.000000E+20
 20
-1.000000E+20
 30
-1.000000E+20
  9
$PLIMMIN
 10
0.0
 20
0.0
  9
$PLIMMAX
 10
12.0
 20
9.0
  9
$UNITMODE
 70
     0
  9
$VISRETAIN
 70
     0
  9
$PLINEGEN
 70
     1
  9
$PSLTSCALE
 70
     0
  9
$TREEDEPTH
 70
  3020
  9
$CMLSTYLE
  2
Standard
  9
$CMLJUST
 70
     0
  9
$CMLSCALE
 40
1.0
  9
$PROXYGRAPHICS
 70
     0
  9
$MEASUREMENT
 70
     1
  9
$CELWEIGHT
370
     0
  9
$ENDCAPS
280
     0
  9
$JOINSTYLE
280
     0
  9
$LWDISPLAY
290
     0
  9
$INSUNITS
 70
     0
  9
$HYPERLINKBASE
  1

  9
$STYLESHEET
  1

  9
$XEDIT
290
     1
  9
$CEPSNTYPE
380
     0
  9
$PSTYLEMODE
290
     1
  9
$FINGERPRINTGUID
  2

  9
$VERSIONGUID
  2

  9
$EXTNAMES
290
     1
  9
$PSVPSCALE
 40
0.0
  0
ENDSEC
  0
SECTION
  2
CLASSES
  0
CLASS
  1
LWPOLYLINE
  2
AcDbPolyline
  3
AutoCAD 2000
 90
    32768
280
     0
281
     1
  0
CLASS
  1
IMAGE
  2
AcDbRasterImage
  3
ISM
 90
    32895
280
     0
281
     1
  0
CLASS
  1
OLE2FRAME
  2
AcDbOle2Frame
  3
AutoCAD 2000
 90
    32768
280
     0
281
     1
  0
CLASS
  1
HATCH
  2
AcDbHatch
  3
AutoCAD 2000
 90
    32768
280
     0
281
     1
  0
CLASS
  1
DICTIONARYVAR
  2
AcDbDictionaryVar
  3
AutoCAD 2000
 90
    32768
280
     0
281
     0
  0
CLASS
  1
RASTERVARIABLES
  2
AcDbRasterVariables
  3
ISM
 90
    32768
280
     0
281
     0
  0
CLASS
  1
IMAGEDEF
  2
AcDbRasterImageDef
  3
ISM
 90
    32768
280
     0
281
     0
  0
CLASS
  1
IMAGEDEF_REACTOR
  2
AcDbRasterImageDefReactor
  3
ISM
 90
    32769
280
     0
281
     0
  0
CLASS
  1
IDBUFFER
  2
AcDbIdBuffer
  3
AutoCAD 2000
 90
    32768
280
     0
281
     0
  0
CLASS
  1
SPATIAL_FILTER
  2
AcDbSpatialFilter
  3
AutoCAD 2000
 90
    32768
280
     0
281
     0
  0
CLASS
  1
XRECORD
  2
AcDbXrecord
  3
AutoCAD 2000
 90
    32768
280
     0
281
     0
  0
CLASS
  1
SORTENTSTABLE
  2
AcDbSortentsTable
  3
AutoCAD 2000
 90
    32768
280
     0
281
     0
  0
CLASS
  1
LAYER_INDEX
  2
AcDbLayerIndex
  3
AutoCAD 2000
 90
    32768
280
     0
281
     0
  0
CLASS
  1
SPATIAL_INDEX
  2
AcDbSpatialIndex
  3
AutoCAD 2000
 90
    32768
280
     0
281
     0
  0
CLASS
  1
OBJECT_PTR
  2
CAseDLPNTableRecord
  3
"ASE-LPNTableRecord"
 90
    32769
280
     0
281
     0
  0
CLASS
  1
LAYOUT
  2
AcDbLayout
  3
AutoCAD 2000
 90
        0
280
     0
281
     0
  0
CLASS
  1
PLOTSETTINGS
  2
AcDbPlotSettings
  3
AutoCAD 2000
 90
    32768
280
     0
281
     0
  0
CLASS
  1
ACDBDICTIONARYWDFLT
  2
AcDbDictionaryWithDefault
  3
AutoCAD 2000
 90
        0
280
     0
281
     0
  0
CLASS
  1
ACDBPLACEHOLDER
  2
AcDbPlaceHolder
  3
AutoCAD 2000
 90
        0
280
     0
281
     0
  0
CLASS
  1
VBA_PROJECT
  2
AcDbVbaProject
  3
acadvba
 90
    32768
280
     0
281
     0
  0
CLASS
  1
WIPEOUT
  2
AcDbWipeout
  3
WipeOut|AutoCAD Express Tool|expresstools@autodesk.com
 90
    32895
280
     0
281
     1
  0
CLASS
  1
WIPEOUTVARIABLES
  2
AcDbWipeoutVariables
  3
WipeOut|AutoCAD Express Tool|expresstools@autodesk.com
 90
        0
280
     0
281
     0
  0
CLASS
  1
RTEXT
  2
RText
  3
RText|AutoCAD Express Tool|expresstools@autodesk.com
 90
    32768
280
     0
281
     1
  0
CLASS
  1
ARCALIGNEDTEXT
  2
AcDbArcAlignedText
  3
ATEXT|AutoCAD Express Tool|expresstools@autodesk.com
 90
    32768
280
     0
281
     1
  0
ENDSEC
  0
SECTION
  2
TABLES
  0
TABLE
  2
VPORT
  5
7
100
AcDbSymbolTable
 70
     1
  0
VPORT
  5
15
100
AcDbSymbolTableRecord
100
AcDbViewportTableRecord
  2
*ACTIVE
 70
     0
 10
0.0
 20
0.0
 11
1.0
 21
1.0
 12
6.591288
 22
4.579184
 13
0.0
 23
0.0
 14
1.0
 24
1.0
 15
0.0
 25
0.0
 16
0.0
 26
0.0
 36
1.0
 17
0.0
 27
0.0
 37
0.0
 40
9.158369
 41
0.688564
 42
50.0
 43
0.0
 44
0.0
 50
0.0
 51
0.0
 71
     0
 72
   100
 73
     1
 74
     1
 75
     0
 76
     0
 77
     0
 78
     0
281
     0
 65
     0
110
0.0
120
0.0
130
0.0
111
1.0
121
0.0
131
0.0
112
0.0
122
1.0
132
0.0
345
0
346
0
 79
     0
146
0.0
  0
ENDTAB
  0
TABLE
  2
LTYPE
  5
4
100
AcDbSymbolTable
 70
     3
  0
LTYPE
  5
11
100
AcDbSymbolTableRecord
100
AcDbLinetypeTableRecord
  2
ByBlock
 70
    64
  3

 72
    65
 73
     0
 40
0.0
  0
LTYPE
  5
12
100
AcDbSymbolTableRecord
100
AcDbLinetypeTableRecord
  2
ByLayer
 70
    64
  3

 72
    65
 73
     0
 40
0.0
  0
LTYPE
  5
13
100
AcDbSymbolTableRecord
100
AcDbLinetypeTableRecord
  2
Continuous
 70
    64
  3
Solid line
 72
    65
 73
     0
 40
0.0
  0
ENDTAB
  0
TABLE
  2
LAYER
  5
2
100
AcDbSymbolTable
 70
     2
  0
LAYER
  5
14
100
AcDbSymbolTableRecord
100
AcDbLayerTableRecord
  2
0
 70
     0
 62
     7
  6
Continuous
290
     1
370
    -3
390
1D
  0
LAYER
  5
28
100
AcDbSymbolTableRecord
100
AcDbLayerTableRecord
  2
CALQUE_2
 70
     0
 62
   160
  6
Continuous
290
     1
370
    -3
390
1D
  0
ENDTAB
  0
TABLE
  2
STYLE
  5
3
100
AcDbSymbolTable
 70
     5
  0
STYLE
  5
17
100
AcDbSymbolTableRecord
100
AcDbTextStyleTableRecord
  2
Standard
 70
     0
 40
0.0
 41
1.0
 50
0.0
 71
     0
 42
0.0
  3
txt
  4

  0
STYLE
  5
24
100
AcDbSymbolTableRecord
100
AcDbTextStyleTableRecord
  2
STD
 70
     0
 40
0.0
 41
1.0
 50
0.0
 71
     0
 42
0.0
  3
txt
  4

  0
STYLE
  5
25
100
AcDbSymbolTableRecord
100
AcDbTextStyleTableRecord
  2
TATESTD
 70
     4
 40
0.0
 41
1.0
 50
0.0
 71
     0
 42
0.0
  3
txt
  4

  0
STYLE
  5
26
100
AcDbSymbolTableRecord
100
AcDbTextStyleTableRecord
  2
KANJISTD
 70
     0
 40
0.0
 41
1.0
 50
0.0
 71
     0
 42
0.0
  3
txt
  4
extfont
  0
STYLE
  5
27
100
AcDbSymbolTableRecord
100
AcDbTextStyleTableRecord
  2
KANJITATE
 70
     4
 40
0.0
 41
1.0
 50
0.0
 71
     0
 42
0.0
  3
txt
  4
extfont
  0
ENDTAB
  0
TABLE
  2
VIEW
  5
5
100
AcDbSymbolTable
 70
     0
  0
ENDTAB
  0
TABLE
  2
UCS
  5
6
100
AcDbSymbolTable
 70
     0
  0
ENDTAB
  0
TABLE
  2
APPID
  5
8
100
AcDbSymbolTable
 70
     1
  0
APPID
  5
16
100
AcDbSymbolTableRecord
100
AcDbRegAppTableRecord
  2
ACAD
 70
     0
  0
ENDTAB
  0
TABLE
  2
DIMSTYLE
  5
9
100
AcDbSymbolTable
 70
     1
100
AcDbDimStyleTable
 71
     0
  0
DIMSTYLE
105
18
100
AcDbSymbolTableRecord
100
AcDbDimStyleTableRecord
  2
Standard
 70
     0
  3

  4

 40
1.0
 41
0.18
 42
0.0625
 43
0.38
 44
0.18
 45
0.0
 46
0.0
 47
0.0
 48
0.0
 71
     0
 72
     0
 73
     1
 74
     1
 75
     0
 76
     0
 77
     0
 78
     0
 79
     0
140
0.18
141
0.09
142
0.0
143
25.4
144
1.0
145
0.0
146
1.0
147
0.09
148
0.0
170
     0
171
     2
172
     0
173
     0
174
     0
175
     0
176
     0
177
     0
178
     0
179
     0
271
     4
272
     4
273
     2
274
     2
275
     0
276
     0
277
     2
278
    46
279
     0
280
     0
281
     0
282
     0
283
     1
284
     0
285
     0
286
     0
288
     0
340
17
341
0
342
0
343
0
344
0
371
    -2
372
    -2
  0
ENDTAB
  0
TABLE
  2
BLOCK_RECORD
  5
1
100
AcDbSymbolTable
 70
     0
  0
BLOCK_RECORD
  5
A
100
AcDbSymbolTableRecord
100
AcDbBlockTableRecord
  2
*MODEL_SPACE
340
20
  0
BLOCK_RECORD
  5
B
100
AcDbSymbolTableRecord
100
AcDbBlockTableRecord
  2
*PAPER_SPACE
340
21
  0
ENDTAB
  0
ENDSEC
  0
SECTION
  2
BLOCKS
  0
BLOCK
  5
D
100
AcDbEntity
  8
0
100
AcDbBlockBegin
  2
*MODEL_SPACE
 70
     0
 10
0.0
 20
0.0
 30
0.0
  3
*MODEL_SPACE
  1

  0
ENDBLK
  5
E
100
AcDbEntity
  8
0
100
AcDbBlockEnd
  0
BLOCK
  5
F
100
AcDbEntity
 67
     1
  8
0
100
AcDbBlockBegin
  2
*PAPER_SPACE
 70
     0
 10
0.0
 20
0.0
 30
0.0
  3
*PAPER_SPACE
  1

  0
ENDBLK
  5
10
100
AcDbEntity
 67
     1
  8
0
100
AcDbBlockEnd
  0
ENDSEC
  0
SECTION
  2
ENTITIES
  0
SPLINE
  5
3E
100
AcDbEntity
  8
CALQUE_2
 62
     7
100
AcDbSpline
210
0.0
220
0.0
230
1.0
 70
     8
 71
     3
 72
    23
 73
    19
 74
     0
 42
0.00000001
 43
0.00000001
 40
0.0
 40
0.0
 40
0.0
 40
0.0
 40
1.0
 40
1.0
 40
1.0
 40
2.0
 40
2.0
 40
2.0
 40
3.0
 40
3.0
 40
3.0
 40
4.0
 40
4.0
 40
4.0
 40
5.0
 40
5.0
 40
5.0
 40
6.0
 40
6.0
 40
6.0
 40
6.0
 10
78.663760036892356
 20
345.16411675347217
 30
0.0
 10
78.663760036892356
 20
345.16411675347217
 30
0.0
 10
77.157908799913187
 20
438.38581678602429
 30
0.0
 10
77.157908799913187
 20
438.38581678602429
 30
0.0
 10
77.021138509114579
 20
441.94494493272566
 30
0.0
 10
73.872837999131931
 20
443.45062391493053
 30
0.0
 10
69.08157145182291
 20
443.03996853298605
 30
0.0
 10
64.290304904513889
 20
442.62931315104163
 30
0.0
 10
20.348800998263886
 20
436.05865478515619
 30
0.0
 10
20.485743543836804
 20
401.56256917317705
 30
0.0
 10
20.622686089409719
 20
367.06648356119786
 30
0.0
 10
20.485743543836804
 20
360.08499755859373
 30
0.0
 10
20.485743543836804
 20
356.93652479383678
 30
0.0
 10
20.485743543836804
 20
348.58630235460066
 30
0.0
 10
28.835965983072914
 20
321.89301350911455
 30
0.0
 10
53.065494791666659
 20
321.89301350911455
 30
0.0
 10
79.348300509982636
 20
321.89301350911455
 30
0.0
 10
78.663760036892356
 20
345.16411675347217
 30
0.0
 10
78.663760036892356
 20
345.16411675347217
 30
0.0
  0
CIRCLE
  5
3D
100
AcDbEntity
  8
CALQUE_2
 62
     7
100
AcDbCircle
 10
70.207429
 20
430.341863
 30
0.0
 40
3.999928
  0
CIRCLE
  5
3C
100
AcDbEntity
  8
CALQUE_2
 62
     7
100
AcDbCircle
 10
70.207429
 20
372.486308
 30
0.0
 40
3.999928
  0
CIRCLE
  5
3B
100
AcDbEntity
  8
CALQUE_2
 62
     7
100
AcDbCircle
 10
97.01854
 20
405.823808
 30
0.0
 40
2.00005
  0
CIRCLE
  5
3A
100
AcDbEntity
  8
CALQUE_2
 62
     7
100
AcDbCircle
 10
97.01854
 20
347.968252
 30
0.0
 40
2.00005
  0
CIRCLE
  5
39
100
AcDbEntity
  8
CALQUE_2
 62
     7
100
AcDbCircle
 10
96.665762
 20
256.02675
 30
0.0
 40
2.00005
  0
CIRCLE
  5
38
100
AcDbEntity
  8
CALQUE_2
 62
     7
100
AcDbCircle
 10
96.665762
 20
198.171194
 30
0.0
 40
2.00005
  0
CIRCLE
  5
37
100
AcDbEntity
  8
CALQUE_2
 62
     7
100
AcDbCircle
 10
143.05604
 20
438.279363
 30
0.0
 40
3.500045
  0
CIRCLE
  5
36
100
AcDbEntity
  8
CALQUE_2
 62
     7
100
AcDbCircle
 10
143.05604
 20
165.715639
 30
0.0
 40
3.500045
  0
SPLINE
  5
35
100
AcDbEntity
  8
CALQUE_2
 62
     7
100
AcDbSpline
210
0.0
220
0.0
230
1.0
 70
     8
 71
     3
 72
    29
 73
    25
 74
     0
 42
0.00000001
 43
0.00000001
 40
0.0
 40
0.0
 40
0.0
 40
0.0
 40
1.0
 40
1.0
 40
1.0
 40
2.0
 40
2.0
 40
2.0
 40
3.0
 40
3.0
 40
3.0
 40
4.0
 40
4.0
 40
4.0
 40
5.0
 40
5.0
 40
5.0
 40
6.0
 40
6.0
 40
6.0
 40
7.0
 40
7.0
 40
7.0
 40
8.0
 40
8.0
 40
8.0
 40
8.0
 10
139.05886773003471
 20
408.96676839192702
 30
0.0
 10
139.05886773003471
 20
407.86227077907984
 30
0.0
 10
138.16331515842012
 20
406.96689046223952
 30
0.0
 10
137.05881754557291
 20
406.96689046223952
 30
0.0
 10
137.05881754557291
 20
406.96689046223952
 30
0.0
 10
137.05881754557291
 20
406.96689046223952
 30
0.0
 10
137.05881754557291
 20
406.96689046223952
 30
0.0
 10
135.9543199327257
 20
406.96689046223952
 30
0.0
 10
135.05876736111111
 20
407.86227077907984
 30
0.0
 10
135.05876736111111
 20
408.96676839192702
 30
0.0
 10
135.05876736111111
 20
408.96676839192702
 30
0.0
 10
135.05876736111111
 20
419.96695827907985
 30
0.0
 10
135.05876736111111
 20
419.96695827907985
 30
0.0
 10
135.05876736111111
 20
421.07145589192703
 30
0.0
 10
135.9543199327257
 20
421.96683620876735
 30
0.0
 10
137.05881754557291
 20
421.96683620876735
 30
0.0
 10
137.05881754557291
 20
421.96683620876735
 30
0.0
 10
137.05881754557291
 20
421.96683620876735
 30
0.0
 10
137.05881754557291
 20
421.96683620876735
 30
0.0
 10
138.16331515842012
 20
421.96683620876735
 30
0.0
 10
139.05886773003471
 20
421.07145589192703
 30
0.0
 10
139.05886773003471
 20
419.96695827907985
 30
0.0
 10
139.05886773003471
 20
419.96695827907985
 30
0.0
 10
139.05886773003471
 20
408.96676839192702
 30
0.0
 10
139.05886773003471
 20
408.96676839192702
 30
0.0
  0
SPLINE
  5
34
100
AcDbEntity
  8
CALQUE_2
 62
     7
100
AcDbSpline
210
0.0
220
0.0
230
1.0
 70
     8
 71
     3
 72
    23
 73
    19
 74
     0
 42
0.00000001
 43
0.00000001
 40
0.0
 40
0.0
 40
0.0
 40
0.0
 40
1.0
 40
1.0
 40
1.0
 40
2.0
 40
2.0
 40
2.0
 40
3.0
 40
3.0
 40
3.0
 40
4.0
 40
4.0
 40
4.0
 40
5.0
 40
5.0
 40
5.0
 40
6.0
 40
6.0
 40
6.0
 40
6.0
 10
322.50744628906244
 20
345.16411675347217
 30
0.0
 10
322.50744628906244
 20
345.16411675347217
 30
0.0
 10
324.01329752604164
 20
438.38581678602429
 30
0.0
 10
324.01329752604164
 20
438.38581678602429
 30
0.0
 10
324.15006781684025
 20
441.94494493272566
 30
0.0
 10
327.2981960720486
 20
443.45062391493053
 30
0.0
 10
332.08963487413189
 20
443.03996853298605
 30
0.0
 10
336.88072916666664
 20
442.62931315104163
 30
0.0
 10
380.82223307291662
 20
436.05865478515619
 30
0.0
 10
380.68546278211801
 20
401.56256917317705
 30
0.0
 10
380.5483479817708
 20
367.06648356119786
 30
0.0
 10
380.68546278211801
 20
360.08499755859373
 30
0.0
 10
380.68546278211801
 20
356.93652479383678
 30
0.0
 10
380.68546278211801
 20
348.58630235460066
 30
0.0
 10
372.33524034288189
 20
321.89301350911455
 30
0.0
 10
348.10553927951383
 20
321.89301350911455
 30
0.0
 10
321.82290581597221
 20
321.89301350911455
 30
0.0
 10
322.50744628906244
 20
345.16411675347217
 30
0.0
 10
322.50744628906244
 20
345.16411675347217
 30
0.0
  0
CIRCLE
  5
33
100
AcDbEntity
  8
CALQUE_2
 62
     7
100
AcDbCircle
 10
330.963605
 20
430.341863
 30
0.0
 40
3.999928
  0
CIRCLE
  5
32
100
AcDbEntity
  8
CALQUE_2
 62
     7
100
AcDbCircle
 10
330.963605
 20
372.486308
 30
0.0
 40
3.999928
  0
CIRCLE
  5
31
100
AcDbEntity
  8
CALQUE_2
 62
     7
100
AcDbCircle
 10
304.152494
 20
405.823808
 30
0.0
 40
2.00005
  0
CIRCLE
  5
30
100
AcDbEntity
  8
CALQUE_2
 62
     7
100
AcDbCircle
 10
304.152494
 20
347.968252
 30
0.0
 40
2.00005
  0
CIRCLE
  5
2F
100
AcDbEntity
  8
CALQUE_2
 62
     7
100
AcDbCircle
 10
304.505272
 20
256.02675
 30
0.0
 40
2.00005
  0
CIRCLE
  5
2E
100
AcDbEntity
  8
CALQUE_2
 62
     7
100
AcDbCircle
 10
304.505272
 20
198.171194
 30
0.0
 40
2.00005
  0
CIRCLE
  5
2D
100
AcDbEntity
  8
CALQUE_2
 62
     7
100
AcDbCircle
 10
258.114994
 20
438.279363
 30
0.0
 40
3.500045
  0
CIRCLE
  5
2C
100
AcDbEntity
  8
CALQUE_2
 62
     7
100
AcDbCircle
 10
258.114994
 20
165.715639
 30
0.0
 40
3.500045
  0
SPLINE
  5
2B
100
AcDbEntity
  8
CALQUE_2
 62
     7
100
AcDbSpline
210
0.0
220
0.0
230
1.0
 70
     8
 71
     3
 72
    29
 73
    25
 74
     0
 42
0.00000001
 43
0.00000001
 40
0.0
 40
0.0
 40
0.0
 40
0.0
 40
1.0
 40
1.0
 40
1.0
 40
2.0
 40
2.0
 40
2.0
 40
3.0
 40
3.0
 40
3.0
 40
4.0
 40
4.0
 40
4.0
 40
5.0
 40
5.0
 40
5.0
 40
6.0
 40
6.0
 40
6.0
 40
7.0
 40
7.0
 40
7.0
 40
8.0
 40
8.0
 40
8.0
 40
8.0
 10
262.11216634114584
 20
408.96676839192702
 30
0.0
 10
262.11216634114584
 20
407.86227077907984
 30
0.0
 10
263.00789116753469
 20
406.96689046223952
 30
0.0
 10
264.11238878038193
 20
406.96689046223952
 30
0.0
 10
264.11238878038193
 20
406.96689046223952
 30
0.0
 10
264.11238878038193
 20
406.96689046223952
 30
0.0
 10
264.11238878038193
 20
406.96689046223952
 30
0.0
 10
265.21688639322912
 20
406.96689046223952
 30
0.0
 10
266.11226671006943
 20
407.86227077907984
 30
0.0
 10
266.11226671006943
 20
408.96676839192702
 30
0.0
 10
266.11226671006943
 20
408.96676839192702
 30
0.0
 10
266.11226671006943
 20
419.96695827907985
 30
0.0
 10
266.11226671006943
 20
419.96695827907985
 30
0.0
 10
266.11226671006943
 20
421.07145589192703
 30
0.0
 10
265.21688639322912
 20
421.96683620876735
 30
0.0
 10
264.11238878038193
 20
421.96683620876735
 30
0.0
 10
264.11238878038193
 20
421.96683620876735
 30
0.0
 10
264.11238878038193
 20
421.96683620876735
 30
0.0
 10
264.11238878038193
 20
421.96683620876735
 30
0.0
 10
263.00789116753469
 20
421.96683620876735
 30
0.0
 10
262.11216634114584
 20
421.07145589192703
 30
0.0
 10
262.11216634114584
 20
419.96695827907985
 30
0.0
 10
262.11216634114584
 20
419.96695827907985
 30
0.0
 10
262.11216634114584
 20
408.96676839192702
 30
0.0
 10
262.11216634114584
 20
408.96676839192702
 30
0.0
  0
SPLINE
  5
2A
100
AcDbEntity
  8
CALQUE_2
 62
     7
100
AcDbSpline
210
0.0
220
0.0
230
1.0
 70
     8
 71
     3
 72
    77
 73
    73
 74
     0
 42
0.00000001
 43
0.00000001
 40
0.0
 40
0.0
 40
0.0
 40
0.0
 40
1.0
 40
1.0
 40
1.0
 40
2.0
 40
2.0
 40
2.0
 40
3.0
 40
3.0
 40
3.0
 40
4.0
 40
4.0
 40
4.0
 40
5.0
 40
5.0
 40
5.0
 40
6.0
 40
6.0
 40
6.0
 40
7.0
 40
7.0
 40
7.0
 40
8.0
 40
8.0
 40
8.0
 40
9.0
 40
9.0
 40
9.0
 40
10.0
 40
10.0
 40
10.0
 40
11.0
 40
11.0
 40
11.0
 40
12.0
 40
12.0
 40
12.0
 40
13.0
 40
13.0
 40
13.0
 40
14.0
 40
14.0
 40
14.0
 40
15.0
 40
15.0
 40
15.0
 40
16.0
 40
16.0
 40
16.0
 40
17.0
 40
17.0
 40
17.0
 40
18.0
 40
18.0
 40
18.0
 40
19.0
 40
19.0
 40
19.0
 40
20.0
 40
20.0
 40
20.0
 40
21.0
 40
21.0
 40
21.0
 40
22.0
 40
22.0
 40
22.0
 40
23.0
 40
23.0
 40
23.0
 40
24.0
 40
24.0
 40
24.0
 40
24.0
 10
304.15266655815969
 20
275.78230523003469
 30
0.0
 10
292.15822211371523
 20
276.84063856336803
 30
0.0
 10
293.56933322482638
 20
270.13786078559025
 30
0.0
 10
293.56933322482638
 20
265.9045274522569
 30
0.0
 10
293.56933322482638
 20
265.9045274522569
 30
0.0
 10
293.56933322482638
 20
230.27397189670137
 30
0.0
 10
293.56933322482638
 20
230.27397189670137
 30
0.0
 10
293.56933322482638
 20
185.82397189670138
 30
0.0
 10
285.10266655815968
 20
178.41563856336805
 30
0.0
 10
275.93044433593747
 20
178.41563856336805
 30
0.0
 10
275.93044433593747
 20
178.41563856336805
 30
0.0
 10
275.38095160590274
 20
178.41563856336805
 30
0.0
 10
274.37257215711804
 20
178.41563856336805
 30
0.0
 10
274.37257215711804
 20
178.41563856336805
 30
0.0
 10
274.37257215711804
 20
175.58480360243053
 30
0.0
 10
274.37257215711804
 20
175.58480360243053
 30
0.0
 10
274.37257215711804
 20
175.58480360243053
 30
0.0
 10
260.37239312065969
 20
175.58480360243053
 30
0.0
 10
260.37239312065969
 20
175.58480360243053
 30
0.0
 10
260.37239312065969
 20
175.58480360243053
 30
0.0
 10
260.37239312065969
 20
178.41563856336805
 30
0.0
 10
260.37239312065969
 20
178.41563856336805
 30
0.0
 10
260.37239312065969
 20
178.41563856336805
 30
0.0
 10
140.79864095052082
 20
178.41563856336805
 30
0.0
 10
140.79864095052082
 20
178.41563856336805
 30
0.0
 10
140.79864095052082
 20
178.41563856336805
 30
0.0
 10
140.79864095052082
 20
175.58480360243053
 30
0.0
 10
140.79864095052082
 20
175.58480360243053
 30
0.0
 10
140.79864095052082
 20
175.58480360243053
 30
0.0
 10
126.79846191406249
 20
175.58480360243053
 30
0.0
 10
126.79846191406249
 20
175.58480360243053
 30
0.0
 10
126.79846191406249
 20
175.58480360243053
 30
0.0
 10
126.79846191406249
 20
178.41563856336805
 30
0.0
 10
126.79846191406249
 20
178.41563856336805
 30
0.0
 10
125.79507785373262
 20
178.41563856336805
 30
0.0
 10
125.24076199001735
 20
178.41563856336805
 30
0.0
 10
125.24076199001735
 20
178.41563856336805
 30
0.0
 10
116.06853976779513
 20
178.41563856336805
 30
0.0
 10
107.60187310112846
 20
185.82397189670138
 30
0.0
 10
107.60187310112846
 20
230.27397189670137
 30
0.0
 10
107.60187310112846
 20
230.27397189670137
 30
0.0
 10
107.60187310112846
 20
265.9045274522569
 30
0.0
 10
107.60187310112846
 20
265.9045274522569
 30
0.0
 10
107.60187310112846
 20
270.13786078559025
 30
0.0
 10
109.01298421223957
 20
276.84063856336803
 30
0.0
 10
97.018539767795133
 20
275.78230523003469
 30
0.0
 10
85.024095323350693
 20
274.72397189670136
 30
0.0
 10
40.926873101128471
 20
266.61008300781248
 30
0.0
 10
40.926873101128471
 20
220.3961941189236
 30
0.0
 10
40.926873101128471
 20
220.3961941189236
 30
0.0
 10
40.926873101128471
 20
185.47119411892359
 30
0.0
 10
40.926873101128471
 20
178.76841634114581
 30
0.0
 10
40.926873101128471
 20
166.42119411892361
 30
0.0
 10
48.687984212239577
 20
138.19897189670138
 30
0.0
 10
79.732428656684021
 20
138.19897189670138
 30
0.0
 10
94.901873101128459
 20
138.19897189670138
 30
0.0
 10
124.3588175455729
 20
151.60452745225692
 30
0.0
 10
200.55864529079858
 20
151.60452745225692
 30
0.0
 10
200.55864529079858
 20
151.60452745225692
 30
0.0
 10
200.61376681857638
 20
151.60452745225692
 30
0.0
 10
200.61376681857638
 20
151.60452745225692
 30
0.0
 10
276.81238878038192
 20
151.60452745225692
 30
0.0
 10
306.26933322482637
 20
138.19897189670138
 30
0.0
 10
321.43877766927079
 20
138.19897189670138
 30
0.0
 10
352.48322211371527
 20
138.19897189670138
 30
0.0
 10
360.24433322482633
 20
166.42119411892361
 30
0.0
 10
360.24433322482633
 20
178.76841634114581
 30
0.0
 10
360.24433322482633
 20
185.47119411892359
 30
0.0
 10
360.24433322482633
 20
220.3961941189236
 30
0.0
 10
360.24433322482633
 20
220.3961941189236
 30
0.0
 10
360.24433322482633
 20
266.61008300781248
 30
0.0
 10
316.14711100260416
 20
274.72397189670136
 30
0.0
 10
304.15266655815969
 20
275.78230523003469
 30
0.0
  0
SPLINE
  5
29
100
AcDbEntity
  8
CALQUE_2
 62
     7
100
AcDbSpline
210
0.0
220
0.0
230
1.0
 70
     8
 71
     3
 72
    98
 73
    94
 74
     0
 42
0.00000001
 43
0.00000001
 40
0.0
 40
0.0
 40
0.0
 40
0.0
 40
1.0
 40
1.0
 40
1.0
 40
2.0
 40
2.0
 40
2.0
 40
3.0
 40
3.0
 40
3.0
 40
4.0
 40
4.0
 40
4.0
 40
5.0
 40
5.0
 40
5.0
 40
6.0
 40
6.0
 40
6.0
 40
7.0
 40
7.0
 40
7.0
 40
8.0
 40
8.0
 40
8.0
 40
9.0
 40
9.0
 40
9.0
 40
10.0
 40
10.0
 40
10.0
 40
11.0
 40
11.0
 40
11.0
 40
12.0
 40
12.0
 40
12.0
 40
13.0
 40
13.0
 40
13.0
 40
14.0
 40
14.0
 40
14.0
 40
15.0
 40
15.0
 40
15.0
 40
16.0
 40
16.0
 40
16.0
 40
17.0
 40
17.0
 40
17.0
 40
18.0
 40
18.0
 40
18.0
 40
19.0
 40
19.0
 40
19.0
 40
20.0
 40
20.0
 40
20.0
 40
21.0
 40
21.0
 40
21.0
 40
22.0
 40
22.0
 40
22.0
 40
23.0
 40
23.0
 40
23.0
 40
24.0
 40
24.0
 40
24.0
 40
25.0
 40
25.0
 40
25.0
 40
26.0
 40
26.0
 40
26.0
 40
27.0
 40
27.0
 40
27.0
 40
28.0
 40
28.0
 40
28.0
 40
29.0
 40
29.0
 40
29.0
 40
30.0
 40
30.0
 40
30.0
 40
31.0
 40
31.0
 40
31.0
 40
31.0
 10
296.26546495225693
 20
461.36081407335064
 30
0.0
 10
285.20429687499995
 20
459.75178222656245
 30
0.0
 10
251.08854980468749
 20
452.71293538411453
 30
0.0
 10
200.58620605468749
 20
452.71293538411453
 30
0.0
 10
150.08265652126735
 20
452.71293538411453
 30
0.0
 10
115.96690945095484
 20
459.75178222656245
 30
0.0
 10
104.90556911892361
 20
461.36081407335064
 30
0.0
 10
93.844228786892359
 20
462.96984592013882
 30
0.0
 10
84.793962944878459
 20
459.3497395833333
 30
0.0
 10
84.793962944878459
 20
445.47272271050343
 30
0.0
 10
84.793962944878459
 20
445.47272271050343
 30
0.0
 10
84.793962944878459
 20
348.73581949869788
 30
0.0
 10
84.793962944878459
 20
348.73581949869788
 30
0.0
 10
84.793962944878459
 20
336.6686835394965
 30
0.0
 10
86.274492730034709
 20
330.29611816406248
 30
0.0
 10
99.274216037326383
 20
328.02097710503472
 30
0.0
 10
107.31903076171874
 20
326.61296657986111
 30
0.0
 10
108.72669677734375
 20
326.00955810546873
 30
0.0
 10
108.72669677734375
 20
318.56832411024305
 30
0.0
 10
108.72669677734375
 20
318.56832411024305
 30
0.0
 10
108.72669677734375
 20
288.39996744791665
 30
0.0
 10
108.72669677734375
 20
288.39996744791665
 30
0.0
 10
108.72669677734375
 20
268.89176974826387
 30
0.0
 10
136.07868787977429
 20
251.19362521701387
 30
0.0
 10
149.75451117621526
 20
251.19362521701387
 30
0.0
 10
152.1678005642361
 20
251.19362521701387
 30
0.0
 10
153.06524793836803
 20
251.99736599392358
 30
0.0
 10
153.06524793836803
 20
254.81269802517357
 30
0.0
 10
153.06524793836803
 20
254.81269802517357
 30
0.0
 10
153.06524793836803
 20
265.76569010416665
 30
0.0
 10
153.06524793836803
 20
265.76569010416665
 30
0.0
 10
152.39948323567708
 20
266.4802029079861
 30
0.0
 10
151.98900010850693
 20
267.43587239583331
 30
0.0
 10
151.98900010850693
 20
268.48938259548606
 30
0.0
 10
151.98900010850693
 20
270.69837782118054
 30
0.0
 10
153.77976074218748
 20
272.48948296440972
 30
0.0
 10
155.98892822265623
 20
272.48948296440972
 30
0.0
 10
158.19809570312498
 20
272.48948296440972
 30
0.0
 10
159.98885633680555
 20
270.69837782118054
 30
0.0
 10
159.98885633680555
 20
268.48938259548606
 30
0.0
 10
159.98885633680555
 20
267.43862847222221
 30
0.0
 10
159.58044026692707
 20
266.48502604166663
 30
0.0
 10
158.91760389539928
 20
265.77120225694443
 30
0.0
 10
158.91760389539928
 20
265.77120225694443
 30
0.0
 10
158.91760389539928
 20
255.31258138020831
 30
0.0
 10
158.91760389539928
 20
255.31258138020831
 30
0.0
 10
158.91760389539928
 20
250.48600260416666
 30
0.0
 10
160.71801079644095
 20
242.94778917100692
 30
0.0
 10
177.61172553168402
 20
242.94778917100692
 30
0.0
 10
177.61172553168402
 20
242.94778917100692
 30
0.0
 10
223.55948079427083
 20
242.94778917100692
 30
0.0
 10
223.55948079427083
 20
242.94778917100692
 30
0.0
 10
240.45319552951386
 20
242.94778917100692
 30
0.0
 10
242.25360243055553
 20
250.48600260416666
 30
0.0
 10
242.25360243055553
 20
255.31258138020831
 30
0.0
 10
242.25360243055553
 20
255.31258138020831
 30
0.0
 10
242.25360243055553
 20
265.77120225694443
 30
0.0
 10
242.25360243055553
 20
265.77120225694443
 30
0.0
 10
241.59076605902774
 20
266.48502604166663
 30
0.0
 10
241.18217773437499
 20
267.43828396267361
 30
0.0
 10
241.18217773437499
 20
268.48938259548606
 30
0.0
 10
241.18217773437499
 20
270.69837782118054
 30
0.0
 10
242.97293836805554
 20
272.48948296440972
 30
0.0
 10
245.18227810329859
 20
272.48948296440972
 30
0.0
 10
247.39127332899304
 20
272.48948296440972
 30
0.0
 10
249.18203396267359
 20
270.69837782118054
 30
0.0
 10
249.18203396267359
 20
268.48938259548606
 30
0.0
 10
249.18203396267359
 20
267.43587239583331
 30
0.0
 10
248.77172309027776
 20
266.4802029079861
 30
0.0
 10
248.10578613281248
 20
265.76569010416665
 30
0.0
 10
248.10578613281248
 20
265.76569010416665
 30
0.0
 10
248.10578613281248
 20
254.81269802517357
 30
0.0
 10
248.10578613281248
 20
254.81269802517357
 30
0.0
 10
248.10578613281248
 20
251.99736599392358
 30
0.0
 10
249.00323350694441
 20
251.19362521701387
 30
0.0
 10
251.41652289496525
 20
251.19362521701387
 30
0.0
 10
265.09251844618052
 20
251.19362521701387
 30
0.0
 10
292.44450954861111
 20
268.89176974826387
 30
0.0
 10
292.44450954861111
 20
288.39996744791665
 30
0.0
 10
292.44450954861111
 20
288.39996744791665
 30
0.0
 10
292.44450954861111
 20
318.56832411024305
 30
0.0
 10
292.44450954861111
 20
318.56832411024305
 30
0.0
 10
292.44450954861111
 20
326.00955810546873
 30
0.0
 10
293.85217556423606
 20
326.61296657986111
 30
0.0
 10
301.89681803385412
 20
328.02097710503472
 30
0.0
 10
314.89654134114579
 20
330.29611816406248
 30
0.0
 10
316.37724338107637
 20
336.6686835394965
 30
0.0
 10
316.37724338107637
 20
348.73581949869788
 30
0.0
 10
316.37724338107637
 20
348.73581949869788
 30
0.0
 10
316.37724338107637
 20
445.47272271050343
 30
0.0
 10
316.37724338107637
 20
445.47272271050343
 30
0.0
 10
316.37724338107637
 20
459.3497395833333
 30
0.0
 10
307.32697753906245
 20
462.96984592013882
 30
0.0
 10
296.26546495225693
 20
461.36081407335064
 30
0.0
  0
ENDSEC
  0
SECTION
  2
OBJECTS
  0
DICTIONARY
  5
19
100
AcDbDictionary
280
     0
281
     1
  3
ACAD_GROUP
350
1A
  3
ACAD_MLINESTYLE
350
1B
  3
ACAD_LAYOUT
350
1E
  3
ACAD_PLOTSETTINGS
350
22
  3
ACAD_PLOTSTYLENAME
350
1F
  3
ACAD_WIPEOUT_VARS
350
23
  0
DICTIONARY
  5
1A
102
{ACAD_REACTORS
330
19
102
}
100
AcDbDictionary
280
     0
281
     1
  0
DICTIONARY
  5
1B
102
{ACAD_REACTORS
330
19
102
}
100
AcDbDictionary
280
     0
281
     1
  3
Standard
350
1C
  0
MLINESTYLE
  5
1C
102
{ACAD_REACTORS
330
1B
102
}
100
AcDbMlineStyle
  2
Standard
 70
     0
  3

 62
     0
 51
90.0
 52
90.0
 71
     2
 49
0.5
 62
   256
  6
ByLayer
 49
-0.5
 62
   256
  6
ByLayer
  0
ACDBDICTIONARYWDFLT
  5
1F
102
{ACAD_REACTORS
330
19
102
}
100
AcDbDictionary
281
     1
  3
Normal
350
1D
100
AcDbDictionaryWithDefault
340
1D
  0
ACDBPLACEHOLDER
  5
1D
102
{ACAD_REACTORS
330
1F
102
}
  0
LAYOUT
  5
20
102
{ACAD_REACTORS
330
1E
102
}
100
AcDbPlotSettings
  1

  2

  4

  6

 40
0.0
 41
0.0
 42
0.0
 43
0.0
 44
0.0
 45
0.0
 46
0.0
 47
0.0
 48
0.0
 49
0.0
140
0.0
141
0.0
142
1.0
143
1.0
 70
  1024
 72
     0
 73
     0
 74
     0
  7

 75
     0
147
1.0
148
0.0
149
0.0
100
AcDbLayout
  1
Model
 70
     0
 71
     0
 10
0.0
 20
0.0
 11
0.0
 21
0.0
 12
0.0
 22
0.0
 32
0.0
 14
0.0
 24
0.0
 34
0.0
 15
0.0
 25
0.0
 35
0.0
146
0.0
 13
0.0
 23
0.0
 33
0.0
 16
0.0
 26
0.0
 36
0.0
 17
0.0
 27
0.0
 37
0.0
 76
     0
330
A
331
0
345
0
346
0
  0
LAYOUT
  5
21
102
{ACAD_REACTORS
330
1E
102
}
100
AcDbPlotSettings
  1

  2

  4

  6

 40
0.0
 41
0.0
 42
0.0
 43
0.0
 44
0.0
 45
0.0
 46
0.0
 47
0.0
 48
0.0
 49
0.0
140
0.0
141
0.0
142
1.0
143
1.0
 70
     0
 72
     0
 73
     0
 74
     0
  7

 75
     0
147
1.0
148
0.0
149
0.0
100
AcDbLayout
  1
Layout1
 70
     0
 71
     0
 10
0.0
 20
0.0
 11
0.0
 21
0.0
 12
0.0
 22
0.0
 32
0.0
 14
0.0
 24
0.0
 34
0.0
 15
0.0
 25
0.0
 35
0.0
146
0.0
 13
0.0
 23
0.0
 33
0.0
 16
0.0
 26
0.0
 36
0.0
 17
0.0
 27
0.0
 37
0.0
 76
     0
330
B
331
0
345
0
346
0
  0
DICTIONARY
  5
1E
102
{ACAD_REACTORS
330
19
102
}
100
AcDbDictionary
280
     0
281
     1
  3
Layout1
350
21
  3
Model
350
20
  0
DICTIONARY
  5
22
102
{ACAD_REACTORS
330
19
102
}
100
AcDbDictionary
280
     0
281
     1
  0
WIPEOUTVARIABLES
  5
23
100
AcDbWipeoutVariables
 70
     1
  0
ENDSEC
  0
EOF
